PrimaNota.ru - самый крупный в мире бесплатный архив песенных текстов, аккордов, табулатур и нот


Bohse Onkelz - Wie Ich Bin - таба, видео

Регистрация Запомнить меня
Войти через:  Facebook Google Twitter Vk Yandex Mail.ru

Bohse Onkelz - Wie Ich Bin - таба, видео

Печатать
Просмотров: 109
Song:   Ich bin so wie ich bin
Author: Boehse Onkelz
Album:  Gehasst, verdammt, verg=F6ttert

I tried to transcribed this song.
If you find something wrong mail to:
matthias suter
mats_23@freesurf.ch

so let's go:



          ---------------------------------
          ---------------------------------
Intro:    ---------------------------------
          ---------------1-----------------
          -0-2-3--2--------0-2-3--2--------
          ----------3--0------------0--0-1-



          ---------------------------------
          ---------------------------------
1.Teil:   ---------------------------------
          ---------------1---------------1-
          -0-2-3--2--------0-2-3--2--------
          ----------3--0------------0--0---



              -----------------
              -----------------
1 1/2.Teil:   ---------------2-
              ---------------3-
              -0-2-3--2------3-
              ----------3--0-1-

 

   C  C G     G A  C  D

  ---------- -----------
  ---------- -----------
  ---------- -4-6--9-11-
  -5---5-5-- -5-7-10-12-
  -3---3-5-- -5-7-10-12-
  -3---3-3-- -3-5--8-10-


     
Добавлено: 06.07.2013
Другие материалы по этой песне:
  • Аккорды и текст

Страница создана 06.07.2013
http://primanota.ru/bohse-onkelz/wie-ich-bin-chords.htm
Привет, Гость.
Предлагаем пройти революционный курс по гитаре.
Подарок от PrimaNota.Ru, забирай!