PrimaNota.ru - самый крупный в мире бесплатный архив песенных текстов, аккордов, табулатур и нот


Boa - Masayume Chasing - аккорды и текст, видео

Регистрация Запомнить меня
Войти через:  Facebook Google Twitter Vk Yandex Mail.ru

Boa - Masayume Chasing - аккорды и текст, видео

Печатать
Просмотров: 2372
Уроки эстрадного вокала в Санкт-Петербурге
Masayume Chasing
Boa
-------------------------------------------------------------------------------
                      BoA - Masayume Chasing ( Short Ver.) 
-------------------------------------------------------------------------------
Tabbed By : xiTiz /(°_°)L

Tuning : Standard

Note :- Capo on 3rd fret
        
        h = hammer

Chords :
  Cadd9  D    Bm   Em   
e|--3----2----2----0----|
b|--3----3----3----0----|
g|--0----2----4----0----|
d|--2----0----4----2----|
a|--3----0----0----2----|
e|--x----x----x----0----|


**Here's my acoustic cover of this song:-http://youtu.be/HJGCnM5isfw**

Youtube:
http://www.youtube.com/user/xitizhnn

Ultimate-Guitar:
http://profile.ultimate-guitar.com/Xitiz+Rana/

Enjoyy~!^ ^
-------------------------------------------------------------------------------

~~~~~~
Intro: 
~~~~~~

e |---6-5-------8-6--5-6------5--6-5-------8-6--5-6------5---| (2x)
b |--------8-6------------6h8---------8-6------------6h8-----|
g |----------------------------------------------------------|
d |----------------------------------------------------------|
a |----------------------------------------------------------|
e |----------------------------------------------------------|

~~~~~~
Verse:
~~~~~~
  Cadd9        D          Bm               Em
Yume wo otte mayoikonda kokoro no mori no oku
  Cadd9       D           Bm            Em
Kagami yori sunda izumi utsuru yuganda Smile
     
      Cadd9      D             Bm                Em         
Koboreta namida wa (Don’t Cry) kin demo kin demo nakute
     Cadd9    D                     Bm              Em
Arifureta namida (Fall From My Eyes) megami mo kizukanai

~~~~~~~
Chorus:
~~~~~~~
         Cadd9
Masayume Chasing Chasing
  D        Bm             Em
Koero motto jibun shijyo saiko no
       Cadd9
Ima wo Chasing Chasing
   D         Bm             Em             Cadd9
Sou egaita jibun ni natte moyase mune no hero

Na na na na na na na Oh
D
Na na na na na Hey Hey
Bm
Na na na na na na na Oh
Em           Cadd9
Kakenukero Hero

Na na na na na na na Oh
D
Na na na na na Hey Hey
Bm
Na na na na (Hey) na na na (Oh)
  Em
Moyase mune no hero

~~~~~~
Outro: 
~~~~~~

e |---6-5-------8-6--5-6-----| 
b |--------8-6---------------|
g |--------------------------|
d |--------------------------|
a |--------------------------|
e |--------------------------|

-------------------------------------------------------------------------------
~The End~
Добавлено: 20.05.2014
Другие материалы по этой песне:
  • Аккорды и текст

Страница создана 20.05.2014
http://primanota.ru/boa/masayume-chasing-chords.htm
Привет, Гость.
Предлагаем пройти революционный курс по гитаре.
Подарок от PrimaNota.Ru, забирай!