PrimaNota.ru - самый крупный в мире бесплатный архив песенных текстов, аккордов, табулатур и нот


Blur - My Terracota Heart - таба, видео

Регистрация Запомнить меня
Войти через:  Facebook Google Twitter Vk Yandex Mail.ru

Blur - My Terracota Heart - таба, видео

Печатать
Просмотров: 101
-------------------------------------------------------------------------------
                          MY TERRACOTA HEART - Blur
-------------------------------------------------------------------------------
Tabbed by: gpeddino
E-mail: gpeddino@gmail.com


Main Guitar (fingerpicked steel acoustic, standard tuning):

Damon Albarn actually uses no barre chords; instead, he uses his thumb on the low E string)

Intro and verses:
E|---------------------------------------------------------------------|
B|---------------------------------------------------------------------|
G|-----5---5---5---7---5---5---5---5---4---4---4---4---4---4---4---4---|
D|-------7-------7-------7-------7-------6-------6-------6-------6-----|
A|---------------------------------------------------------------------|
E|---5-------5-------5-------5-------4-------4-------4-------4---------|

Chorus and outro:
E|---------------------------------------------------------------------|
B|---------------------------------------------------------------------|
G|-----5---5---5---7---2---2---2---2---4---4---4---4---1---1---1---1---|
D|-------7-------7-------3-------3-------5-------5-------2-------2-----|
A|---------------------------------------------------------------------|
E|---5-------5-------1-------1-------3-------3-------0-------0---------|


Lead Guitar (electric, standard tuning):

Over intro and verses:
E|---------------12------12------------------12------12--------|
B|---12h13-----------------------12h13-------------------------|
G|---------14--------------------------14----------------------|
D|------------14----(14)----(14)----------14----(14)----(14)---|
A|-------------------------------------------------------------|
E|-------------------------------------------------------------|

E|---------------12------12------------------12------12--------|
B|---12h13-----------------------12h13-------------------------|
G|---------13--------------------------13----------------------|
D|------------14----(14)----(14)----------14----(14)----(14)---|
A|-------------------------------------------------------------|
E|-------------------------------------------------------------|

Before chorus:
E|---12----------12---------|
B|------15----15----15------|
G|---------13----------13---|
D|--------------------------|
A|--------------------------|
E|--------------------------|

Chorus:
E|------------------------------------------------------------------------------|
B|---21b--18----19b--17----21b--18----18p17-------------------------------------|
G|------------------------------------------19-17-16----------------------------|
D|---21b--19----19b--17----21b--19-------------------19-17----------------------|
A|---------------------------------------------------------19-17s15-------------|
E|------------------------------------------------------------------17-15s12----|

Outro:
E|-------------------------------------------------------------------------------|
B|-------------------------------------------------------------------------------|
G|---14s12------------------------------14s12-14---------------------------------|
D|---------14---12--12s14---7---7s10-7---------------14s12-14---10s9-10--9s7-5---|
A|---12s10------------------------------12s10-12---------------------------------|
E|---------12---10--10s12---5---5s8--5---------------12s10-12----8s7-8---7s5-3---|

E|-----------------------------------------------------|
B|-----------------------------------------------------|
G|---14s12---------------------------------------------|
D|---------14---12--12s14---7---7s10-7----5------------|
A|---12s10---------------------------------------------|  (repeat to end, with variation)
E|---------12---10--10s12---5---5s8--5----3----3p2p0---|


************************************

| /   slide up
| \   slide down
| h   hammer-on
| p   pull-off
| ~   vibrato
| +   harmonic
| x   Mute note
| b   Bend
| pb  Pre-bend
| br  Bend release
| pbr Pre-bend release
| brb Bend release bend

************************************
Добавлено: 08.03.2016
Другие материалы по этой песне:
  • Аккорды и текст

Страница создана 08.03.2016
http://primanota.ru/blur/my-terracota-heart-chords.htm
Привет, Гость.
Предлагаем пройти революционный курс по гитаре.
Подарок от PrimaNota.Ru, забирай!