PrimaNota.ru - самый крупный в мире бесплатный архив песенных текстов, аккордов, табулатур и нот


Blur - I Broadcast - таба, бас-таба, видео

Регистрация Запомнить меня
Войти через:  Facebook Google Twitter Vk Yandex Mail.ru

Blur - I Broadcast - таба, бас-таба, видео

Печатать
Просмотров: 87
Авторы: Alex James, Dave Rowntree, Damon Albarn, Graham Coxon

I Broadcast
blur
The Magic Whip

Tabbed By: Saviano P.
Email: saviano.perry1@gmail.com
Corrections welcome




Intro/Verse:
e|--14-14-14-14-14--12--12--14-14-14------|
B|--15-15-15-15-15--14--14--15-15-15------|
G|----------------------------------------|
D|----------------------------------------|
A|----------------------------------------|
E|----------------------------------------|
pm....................................


Chorus:
    D     A    G
e|--5555--5-5--3-3--3--|
B|--7777--5-5--3-3--3--|
G|--7777--6-6--4-4--4--|
D|--7777--7-7--5-5--5--|
A|--5555--7-7--5-5--5--|
E|--------5-5--3-3--3--|

Break:
e|----------------------------------------|
B|----------------------------------------|
G|----------------------------------------|
D|----------------------------------------|
A|-17-17-16s14----------------------------|
E|-------------17s15-15s17s15s13s15s13----|
Добавлено: 10.10.2015
Вам также может быть интересно:
Другие материалы по этой песне:
  • Аккорды и текст

Страница создана 10.10.2015
http://primanota.ru/blur/i-broadcast-chords.htm
Привет, Гость.
Предлагаем пройти революционный курс по гитаре.
Подарок от PrimaNota.Ru, забирай!