PrimaNota.ru - самый крупный в мире бесплатный архив песенных текстов, аккордов, табулатур и нот


Blur - Moroccan Peoples Revolutinary Bowls Club - аккорды и текст, видео

Регистрация Запомнить меня
Войти через:  Facebook Google Twitter Vk Yandex Mail.ru

Blur - Moroccan Peoples Revolutinary Bowls Club - аккорды и текст, видео

Печатать
Просмотров: 113
Уроки эстрадного вокала в Санкт-Петербурге
Moroccan Peoples Revolutinary Bowls Club
Blur
e|---------|
B|---------|
G|---------| GUITAR I
D|---------| (Play this from 0:13 up until the solo,
A|-0-0-0-0-| after solo play until 1:50 and stop again)
E|---------|
 
e|---------9-7-9--5---7-----7-5-7-5--7-9--|
B|--5----7----------7---5/7-------------7-|
G|----------------------------------------| SOLO (x3) GUITAR II
D|----------------------------------------|
A|----------------------------------------|
E|----------------------------------------|

e|-------9-7-9--5---7------7-7-7-7--7-5-5-|
B|--5--7----------7---5/7-----------------|
G|----------------------------------------| SOLO END (x1) GUITAR II
D|----------------------------------------|
A|----------------------------------------|
E|----------------------------------------|

e|---------|
B|---------|
G|---------| A Third Guitar?
D|----2----| Fill-In's (Start During Solo ends about 1:50)
A|--4---0--|
E|---------|

e|-----------------------------------------------------------------------------|
B|-----------------------------------------------------------------------------|
G|--------------------------------------------------------------- Third Guitar?|
D|----------------------------------------------------------------------------2|
A|-0-0-0-2/4-4-4-2-(x3)-0-0-0---0-2/4-2-0-0-0-2/3/2/3/2-0-2/3/2/3/2/3/2/3/2--0-|
E|----------------------------4------------------------------------------------|

e|--17-17-17^18-18-18-18/17-|
B|--------------------------|
G|--------------------------| Bend (end of guitar parts)
D|--------------------------| (x4)
A|--------------------------|
E|--------------------------|
Добавлено: 19.03.2014
Другие материалы по этой песне:
  • Аккорды и текст

Страница создана 19.03.2014
http://primanota.ru/blur/moroccan-peoples-revolutinary-bowls-club-chords.htm
Привет, Гость.
Предлагаем пройти революционный курс по гитаре.
Подарок от PrimaNota.Ru, забирай!