PrimaNota.ru - самый крупный в мире бесплатный архив песенных текстов, аккордов, табулатур и нот


Blur - Ghost Ship - таба, бас-таба, видео

Регистрация Запомнить меня
Войти через:  Facebook Google Twitter Vk Yandex Mail.ru

Blur - Ghost Ship - таба, бас-таба, видео

Печатать
Просмотров: 32
Авторы: Alex James, Dave Rowntree, Damon Albarn, Graham Coxon

Ghost Ship
blur
The Magic Whip

Tabbed By: Saviano P.
Email: saviano.perry1@gmail.com
Corrections Welcome


Verse: 
e|-14--------15--------14-14------------14--------14--14---------|
B|-14--------15--------14----14-----------14---14---14---14------|
G|-14--------16--(x4)--14-------14----------14-------------14----|
D|-----------------------------------16--------------------------|
A|---------------------------------------------------------------|
E|---------------------------------------------------------------|


Break:
e|--9--9--9---xx--9-xxx--9---9-xxx--1414141414-------------14---|
B|-10-10-10---xx-10-xxx-10--10-xxx--1515151515-------14-15-15---|
G|-11-11-11---xx-11-xxx-11--11-xxx--1616161616-14-16-14-16------|
D|-11-11-11---xx-11-xxx-11--11-xxx--1616161616-14-16------------|
A|--9--9--9-------9------9---9----------------------------------|
E|--------------------------------------------------------------|

e|--9--9--9---xx--9-xxx--9---9-xxx--1414141414------------------|
B|-10-10-10---xx-10-xxx-10--10-xxx--1515151515-------14-15-14---|
G|-11-11-11---xx-11-xxx-11--11-xxx--1616161616-14-16-14-16-14---|
D|-11-11-11---xx-11-xxx-11--11-xxx--1616161616-14-16------------|
A|--9--9--9-------9------9---9----------------------------------|
E|--------------------------------------------------------------|

Verse 2:
Guitar 1:
e|-14-----------15--------------14-----------15-------14------------15-------14---------15--|
B|-14-----------15--------------14-----------15-------14------------15-------14---------15--|
G|-14-----------15---16-14-16---14-----------15-------14------------15-------14---------15--|
D|-------------------17-15-17---------------------------------------------------------------|
A|------------------------------------------------------------------------------------------|
E|------------------------------------------------------------------------------------------|

Guitar 2:
e|-------------------------9-9-9-9-xx--9---9-------9-9-9--xx--9---9--xxx-9-9-9-----9---9-9------|
B|------------------------10101010-xx-10--10-------101010-xx-10--10--xxx101010----10--1010------|
G|------------------------11111111-xx-11--11-------111111-xx-11--11--xxx111111----11--1010------|
D|------------------------11111111-xx-11--11-------111111-xx-11--11--xxx111111----11--1111------|
A|-------------------------9-9-9-9-xx--9---9--------9-9-9-xx--9---9--xxx-9-9-9-----9---9-9------|
E|----------------------------------------------------------------------------------------------|




Chorus: 
e|-9-9-9-9--9---9\--------------3/------9-9-9---9----9-9-9------9--10---|
B|10101010-10--10\--------------4/-----101010--10---101010-----10--11---|
G|11111111-11--11\--------------5/-----111111--11---111111-----11--12---|
D|11111111-11--11\--------------5/-----111111--11---111111-----11--12---|
A|-9-9-9-9--9---9\--------------3/------9-9-9---9----9-9-9------9--10---|
E|----------------------------------------------------------------------|

Bridge: 
e|----------------------------------------|
B|----------------------------------------|
G|-14\12-11----7/11--7--------------------|
D|--x\-x--x----x/-x--x--7----5--4-5-7-----|
A|-12\10--9----5/10--5--x----x--x-x-x--7--|
E|----------------------5----3--2-3-5--5--|


Solo: 
e|----------------------------------------------------------------------------------------------|
B|-----------------10-10h12--------------------10-10h12--------------------10-10h12-------------|
G|-14\11-11--9--11----------14\11-11~-----12\11----------14\11-11~----9--11----------14\11-11~--|
D|--x\-x--x-------------------------------------------------------------------------------------|
A|-12\-9--9-------------------------------------------------------------------------------------|
E|----------------------------------------------------------------------------------------------|

e|-----------------|
B|-11-13-10-14-12--|
G|-11-13-10-14-12--|
D|-----------------|
A|-----------------|
E|-----------------|
Добавлено: 31.10.2015
Другие материалы по этой песне:
  • Аккорды и текст

Страница создана 10.10.2015
http://primanota.ru/blur/ghost-ship-chords.htm
Привет, Гость.
Предлагаем пройти революционный курс по гитаре.
Подарок от PrimaNota.Ru, забирай!