PrimaNota.ru - самый крупный в мире бесплатный архив песенных текстов, аккордов, табулатур и нот


Blur - Es Schmecht - текст песни, таба, видео

Регистрация Запомнить меня
Войти через:  Facebook Google Twitter Vk Yandex Mail.ru

Blur - Es Schmecht - текст песни, таба, видео

Печатать
Просмотров: 83
Уроки эстрадного вокала в Санкт-Петербурге
blur
Es Schmecht 
Modern Life is Rubbish Special Edition

Tabbed by: Saviano P.
Standard Tuning
Email: saviano.perry1@gmail.com
corrections welcome


Intro:
   C    Bm       G  Bm  C     Bm     Am
e|---------------3----------------------------------|
B|-5--5--3-------3--3---5--5--3-------1p0-----------|
G|-5--5--4-------4--4---5--5--4-----------2---------|
D|-5--5--4--2p0--5--4---5--5--4--2p0--------2p0-----|  x3
A|-3--3--2-------5--2---3--3--2-----------------3---|
E|---------------3----------------------------------|

Verse:
   C    Bm       G  Bm  
e|---------------3---------|
B|-5--5--3-------3--3------|
G|-5--5--4-------4--4------|
D|-5--5--4--2p0--5--4------| 
A|-3--3--2-------5--2------|
E|---------------3---------|

Chorus:
   C5      B5      G      G5   
e|-----------------------------------|
B|-----------------------------------|
G|-------5------4--------------------|
D|-----5------4--------0-------5-----|
A|--3------2---------2-------5-------|
E|----------------3-------3----------|
Добавлено: 10.10.2015
Другие материалы по этой песне:
  • Аккорды и текст

Страница создана 12.03.2012
http://primanota.ru/blur/es-schmecht-chords.htm
Привет, Гость.
Предлагаем пройти революционный курс по гитаре.
Подарок от PrimaNota.Ru, забирай!