PrimaNota.ru - самый крупный в мире бесплатный архив песенных текстов, аккордов, табулатур и нот


Blur - Headist / Into Another - текст песни, таба, видео

Регистрация Запомнить меня
Войти через:  Facebook Google Twitter Vk Yandex Mail.ru

Blur - Headist / Into Another - текст песни, таба, видео

Печатать
Просмотров: 106
HEADIST/INTO ANOTHER
BY BLUR
FROM MUSIC IS MY RADAR SINGLE
2000
(Song first released in 1992)
------------------------------
Tabbed by AAuuddee@aol.com


INTRO:

Guitar1:
  D                Ab             E        Ab       G   repeat
----------2---------------------------------------------------
------3-----3---3-------------4--5--0------------4--3---------
----2---2-----2---------5---5---------1--------5------4-------
--0-------------------6---6-------------2----6----------5-----
-------------------------------------------6--------------5---
-------------------4----------------------------------------3-

Guitar2: strange effects I tried to tab as right as possible
----------------------
----------------------
--11--13--9--13--12---repeat
----------------------
----------------------
----------------------


VERSE1:

Guitar1:
  D                Ab             E        Ab       G   repeat
----------2---------------------------------------------------
------3-----3---3-------------4--5--0------------4--3---------
----2---2-----2---------5---5---------1--------5------4-------
--0-------------------6---6-------------2----6----------5-----
-------------------------------------------6--------------5---
-------------------4----------------------------------------3-

the last time, play this:
  D                Ab             E        Ab       A
----------2--------------------------------------------------
------3-----3---3-------------4--5--0------------4--5--5--5--
----2---2-----2---------5---5---------1--------5----6--6--6--
--0-------------------6---6-------------2----6------7--7--7--
-------------------------------------------6--------7--7--7--
-------------------4--------------------------------5--5--5--

Guitar2: strange effects I tried to tab as right as possible
----------------------
----------------------
--11--13--9--13--12---repeat
----------------------
----------------------
----------------------

the last time, play this:
---------------------
---------------------
--11--13--9--13--14--
---------------------
---------------------
---------------------


CHORUS:

Guitar1:
  G   B   E  Abm  C#m  Bm  D    B
-----------------------------------
-----------------------------------
--4---8---1---4---9----7---11---8--
--5---9---2---6---11---9---12---9-- repeat
--5---9---2---6---11---9---12---9--
--3---7---0---4---9----7---10---7--

Guitar2:
------------------------------------
--8--12--17--9--12--14--12--15--12--
------------------------------------
------------------------------------ repeat
------------------------------------
------------------------------------


VERSE2: same as verse1


CHORUS


BRIDGE: effects added here

Guitar1:
  D                  Ab
----------2----2--2-----------4----4--4--
------3-----3--2--4------5------5--4--6--
----2---2------2--4----4---4-------4--6--
--0------------------6-------------------
-----------------------------------------
-----------------------------------------

-------------------------------------
--7--7--7--9--9---7-7--7--7--10--9---
--7--7--7--7--7---7-7--7--7--7---7---
--9--9--9--9--9---7h9--9--9--9---9---
-------------------------------------
-------------------------------------

--------------------------------------
--7-7--7--7--9--9---7-7--7--7--10--9--
--7-7--7--7--7--7---7-7--7--7--7---7--
--7h9--9--9--9--9---7h9--9--9--9---9--repeat this fill
--------------------------------------
--------------------------------------

The last time, play this:
                      E   D
----------------------7---5--
--7--7--7--9--9---7---9---7--
--7--7--7--7--7---7---9---7--
--9--9--9--9--9---7---9---7--
-----------------------------
-----------------------------
Then play the chorus without lyrics


guitar2: played later with guitar 1
----------------------------------------------------------------
------------------------1s3-------------------------------1s3---
--4r2h4-----2s4-2s4---------4-----2s4-2s4-----2s4-2s4---------4-
--------2h4---------2h4-------2h4---------2h4---------2h4-------
----------------------------------------------------------------
----------------------------------------------------------------

--------------------------------------------------------------
------------------1s3--------1s3-------1s3--------------------
------2s4-2s4---------4----------4---------4-----2s4-2s4------
--2h4---------2h4-------2h4--------2h4-------2h4---------2h4--
--------------------------------------------------------------
--------------------------------------------------------------

---------------------------------
----------------3--5s(slowly)s9--
--2s4-2s4--2--4------------------
---------------------------------
---------------------------------
---------------------------------


CHORUS


end on a G

Guitar1:
-----
-----
--4--
--5--
--5--
--3--

Guitar2:effects
-------
--8~~--
-------
-------
-------
-------


ENJOY!!!
     
Добавлено: 12.07.2013
Другие материалы по этой песне:
  • Аккорды и текст

Страница создана 03.06.2012
http://primanota.ru/blur/headist-into-another-chords.htm
Привет, Гость.
Предлагаем пройти революционный курс по гитаре.
Подарок от PrimaNota.Ru, забирай!