PrimaNota.ru - самый крупный в мире бесплатный архив песенных текстов, аккордов, табулатур и нот


Blue Oyster Cult - The Siege And Investiture of Baron Von Frankenstein's Castle at Weisseria - текст песни, таба, видео

Регистрация Запомнить меня
Войти через:  Facebook Google Twitter Vk Yandex Mail.ru

Blue Oyster Cult - The Siege And Investiture of Baron Von Frankenstein's Castle at Weisseria - текст песни, таба, видео

Печатать
Просмотров: 42
-------------------------------------------------------------------------------
 The Siege and Investiture of Baron von Frankenstein's Castle at Weisseria
                           Blue Öyster Cult
-------------------------------------------------------------------------------
Tabbed by: LoggyK
E-mail: Loggy.king@gmail.com

Tuning: EADGBe

INTRO

e|---------------------------------------------------------------------------|
B|---------------------------------------------------------------------------|
G|---------------------------------------------------------------------------|
D|---------------------------------------------------------------------------|
A|--0-2-----------0---2-3~---------------------------------------------------|
E|--------3-0---3------------------------------------------------------------|
    A B   G E   G A   B C




   E           D       C     D       E
"a drug by the name of world without end"
e|---------------------------------------------------------------------------|
B|---------------------------------------------------------------------------|
G|----9-----7---5-7-9--------------------------------------------------------|
D|----9-----7---5-7-9--------------------------------------------------------|
A|--7-7---5-5---3-5-7--------------------------------------------------------|
E|---------------------------------------------------------------------------|
    E E   D D   C D E


************************************

| /   slide up
| \   slide down
| h   hammer-on
| p   pull-off
| ~   vibrato
| +   harmonic
| x   Mute note
| b   Bend
| pb  Pre-bend
| br  Bend release
| pbr Pre-bend release
| brb Bend release bend

************************************
Добавлено: 21.11.2015
Другие материалы по этой песне:
  • Аккорды и текст

Страница создана 28.03.2012
http://primanota.ru/blue-oyster-cult/the-siege-and-investiture-of-baron-von-frankensteins-castle-at-weisseria-chords.htm
Привет, Гость.
Предлагаем пройти революционный курс по гитаре.
Подарок от PrimaNota.Ru, забирай!