PrimaNota.ru - самый крупный в мире бесплатный архив песенных текстов, аккордов, табулатур и нот


Blue Oyster Cult - R U Ready 2 Rock - текст песни, таба, видео

Регистрация Запомнить меня
Войти через:  Facebook Google Twitter Vk Yandex Mail.ru

Blue Oyster Cult - R U Ready 2 Rock - текст песни, таба, видео

Печатать
Просмотров: 156
Авторы: Albert Bouchard, Sandy Pearlman

-------------------------------------------------------------------------------

 R U Ready 2 Rock    Blue Oyster Cult
-------------------------------------------------------------------------------
Tabbed by:Frank4metal
Email:fatcar50s@hotmail.com

Tuning:standard

 Here's the basics of how I play this song. Its from the Some Enchanted Evening album.
You'll have to listen to song for timing. Sorry, I don't have the ending, I'll 
update that later. Enjoy.

   intro and verses
      C           Dm
e|----------------h-----------------------------------------------------------------|
B|----5--5--5--5--6--6--------------------------------------------------------------|
G|----5--5--5--5--7--7--------------------------------------------------------------|
D|----5--5--5--5--7--7--------------------------------------------------------------|
A|-----------------------5--5--5--5--5--5-------------------------------------------|
E|----------------------------------------------------------------------------------|

    chorus
     G           A
e|--------------------------------------------------------------------------------|
B|--------------------------------------------------------------------------------|
G|--------------------------------------------------------------------------------|
D|---------------5----------------0--1--2-----------------------------------------|
A|---5--5--5--5--0-------0--2--3--------------------------------------------------|
E|---3--3--3--3-------3-----------------------------------------------------------|
   R U ready 2   rock?   yes I am

            Dm               G
e|-------------------------------------------------------------------------------|
B|---------------------------8---------------------------------------------------|
G|---------------------------7---------------------------------------------------|
D|---------7-----------------5---------------------------------------------------|
A|---------5---------------------------------------------------------------------|
E|-------------------------------------------------------------------------------|
          who will rock with you?

    bridge
e|-------------------------------------------------------------------------------------|
B|-------------------------------------------------------------------------------------|
G|-------------------------------------------------------------------------------------|
D|---------2---------------------------------------------------------------------------|
A|---------0--0--0---------------------------------------------------------------------|
E|----3--------------3--3-3---2-2-2-1-1--0---------------------------------------------|
    no I ain't gonna catch them countdown blues
e|------------------------------------------------------------------------------------|
B|------------------------------------------------------------------------------------|
G|---2--------------------------------------------------------------------------------|
D|---0--0--0--------------------------------------------------------------------------|
A|-------------3--3--3----2--2--2---1-1--0--------------------------------------------|
E|------------------------------------------------------------------------------------|
   I only live to be born again

  rhythm guitar part after Eric addresses the audience
     G         A         D
e|---------------------------------------------------------------------------------|
B|---8--8-----10-------------------------------------------------------------------|
G|---7--7--/--9--------------------------------------------------------------------|
D|---5--5-----7----------7---------------------------------------------------------|
A|-------------------0---5---------------------------------------------------------|
E|---------------------------------------------------------------------------------|




| /  slide up
| \  slide down
| h  hammer-on
| p  pull-off
| ~  vibrato
| +  harmonic
| x  Mute note
===============================================================================
Добавлено: 25.05.2012
Другие материалы по этой песне:
  • Аккорды и текст

Страница создана 25.05.2012
http://primanota.ru/blue-oyster-cult/r-u-ready-2-rock-chords.htm
Привет, Гость.
Предлагаем пройти революционный курс по гитаре.
Подарок от PrimaNota.Ru, забирай!