PrimaNota.ru - самый крупный в мире бесплатный архив песенных текстов, аккордов, табулатур и нот


Blonde Redhead - I Am There While You Choke On Me - таба, видео

Регистрация Запомнить меня
Войти через:  Facebook Google Twitter Vk Yandex Mail.ru

Blonde Redhead - I Am There While You Choke On Me - таба, видео

Печатать
Просмотров: 195
-------------------------------------------------------------------------------
                                    I Am There While You Choke On Me by Blonde Redhead
-------------------------------------------------------------------------------

From 'La Mia Vita Violenta' (1995). This one is really drum heavy and there's layers of
stuff going on in the album version, but this sounds close enough. I could be totally
off base with it, but based on some live footage of them playing, it's something along 
the lines of this. Play it with distortion, it sounds like they have some sort of filter 
on it.

Tabbed by: Scott H.

Tuning: Standard


Intro (two chords hit at the beginning):

e|----------------|
B|----------------|
G|--0-----1-------|
D|--2-----2-------|
A|--2-----2-------|
E|--0-----0-------|



Riff A (Main Riff):

e|---9--9--9--6-----|
B|---9--9--9--6-----|
G|---9--9--9--6-----|
D|--11-11-11--8-----|
A|--11-11-11--8-----|
E|---9--9--9--6-----|


Riff A
      Shatter
      I'm not
      I know
      Show me
      To my
      I meant
      Your kinda
      Chocolate world


Riff B:

e|--9--9--9--6------|
B|--9--9--9--6------|
G|-11-11-11--8------|
D|-11-11-11--8------|
A|--9--9--9--6------|
E|--9--9--9--6------|



Riff B
      Wanna
      Wanna
      Wanna die
      Wanna die
      Wanna, ah, yeah
      Screamin' come out
      Come out

Riff A
      I'm not too sure
      If you're my kinda guy
      I don't know
      Wanna hurt, don't you?

Riff A/B
      Wanna
      Wanna
      Cut it out
      Wanna say
      Wanna be saved
      Wanna walk on
      I walk on
      Walk on, you hear me?
      Oh! Oh yeah, baby!
      When I know
      We should be
      I look for
Добавлено: 20.06.2012
Другие материалы по этой песне:
  • Аккорды и текст

Страница создана 20.06.2012
http://primanota.ru/blonde-redhead/i-am-there-while-you-choke-on-me-chords.htm
Привет, Гость.
Предлагаем пройти революционный курс по гитаре.
Подарок от PrimaNota.Ru, забирай!