PrimaNota.ru - самый крупный в мире бесплатный архив песенных текстов, аккордов, табулатур и нот


Blonde Redhead - In Particular - аккорды и текст, таба, видео

Регистрация Запомнить меня
Войти через:  Facebook Google Twitter Vk Yandex Mail.ru

Blonde Redhead - In Particular - аккорды и текст, таба, видео

Печатать
Просмотров: 233
In Particular
Blonde Redhead
In Particular - Blonde Redhead

Intro;
Cm B Bb, Gm Gb Bb, Gb Bb
Cm B Bb, Gm Gb Bb, Gb Bb
Gb Gm Gb Bb, Gb Gm Gb Bb,

Verse:
Cm                        B
Lying on my back, I heard music
Bb                    Gm
Felt unsure and catastrophic
Gb                           Bb
Had to tell myself it's only music
Gb                         Bb
It blows my mind, but it's like that

Cm                           B
Anyone there? What could you tell me?
Bb                        Gm
Afraid of what? Would you ever know?
Gb                      Bb
Everyone else is really boring
Gb                      Bb
Anyone else wouldn't be good enough

Cm                       B
Some place safe, I would imagine
Bb                      Gm
Someone new would be so cruel
Gb            Bb   Gb           Bb
Incurable paranoiac, hysterical depression

Chorus:

Gb
X
Gm 
X X
Gb
Alex 
         Bb
I'm your only friend

Gb
X 
Gm
X X
Gb 
Alex
               Bb 
Your love will sing for you

Interlude:
---------------------------------------------------------------6-6------6-6--|
-------------------------3-3------3-3--------------------------3-3------3-3--|
-3-5-6-6---3-5-6-6---3-5------3-5------3-5-6-6---3-5-6-6---3-5------3-5------|
-----------------------------------------------------------------------------|
-----------------------------------------------------------------------------|
-----------------------------------------------------------------------------|
x2

Verse2:
Cm                       B
Some place safe, I would imagine
Bb                      Gm
Someone new would be so cruel
Gb            Bb    Gb            Bb
Incurable paranoiac, hysterical depression

Chorus2:
Gb
Awlll
Gm 
X X
Gb
X
            Bb
I'm your only friend

Gb
X 
Gm
X X
Gb 
Alex
               Bb 
Your love will sing for you
x2

Outro:
Bb                  B                    Gb                Bb
-------------------------------------------------------------------------------|
-11-------11---9-11-12--------12---14-12-11------11---9-11-11-------11---------|
----10-------------------13-----------------11----------------10---------------|
-------12------------------13------------------11----------------12------------|
-------------------------------------------------------------------------------|
-------------------------------------------------------------------------------|
       Abm              Gb
----------------------------------------------|
-12-11-9------9----11-9-7------7---9-11-------|
---------8-----------------6------------------|
-----------9-----------------8----------------|
----------------------------------------------|
----------------------------------------------|
(repeat and fade out)




Compiled by Duate, 
using information from The Unknown Tabber 
(http://tabs.ultimate-guitar.com/b/blonde_redhead/in_particular_tab_1115020id_13122011date.htm)
If this is your tab, please message me so I can credit you.

Добавлено: 13.12.2015
Другие материалы по этой песне:
  • Аккорды и текст

Страница создана 16.06.2012
http://primanota.ru/blonde-redhead/in-particular-chords.htm
Привет, Гость.
Предлагаем пройти революционный курс по гитаре.
Подарок от PrimaNota.Ru, забирай!