PrimaNota.ru - самый крупный в мире бесплатный архив песенных текстов, аккордов, табулатур и нот


Blonde Redhead - Justin Joyous - таба, видео

Регистрация Запомнить меня
Войти через:  Facebook Google Twitter Vk Yandex Mail.ru

Blonde Redhead - Justin Joyous - таба, видео

Печатать
Просмотров: 189
-------------------------------------------------------------------------------
                             JUSTIN JOYOUS - Blonde Redhead
-------------------------------------------------------------------------------
Tabbed by: Gustavo Collado

Tuning: EADGBe

e|-----------|
B|-----------|
G|-8-9-11-12-| X4
D|-----------|
A|-----------|
E|-----------|

e|------------------------|
B|------------------------|
G|------------------------|
D|------------------------|
A|-6(h7h6)~-6~-6(h7h6)~-6~|
E|------------------------|
h=hammer on
~=vibrato

e|-----------|
B|-----------|
G|-8-9-11-12-| X4
D|-----------|
A|-----------|
E|-----------|

e|------------------------|
B|------------------------|
G|------------------------|
D|------------------------|
A|-6(h7h6)~-6~-6(h7h6)~-6~|
E|------------------------|
h=hammer on
~=vibrato

e|-----------|
B|-----------|
G|-8-9-11-12-| X4
D|-----------|
A|-----------|
E|-----------|

e|----------12-|
B|-12-10-13----|
G|-------------| X3
D|-------------|
A|-------------|
E|-------------|

e|-----------|
B|-12-10-8-7-|
G|-----------|
D|-----------|
A|-----------|
E|-----------|

e|--------------------|
B|--------------------|
G|-8---------8--8--8--|
D|-x---------x--x--x--|
A|-676767676-6~-6~-6~-|
E|--------------------|
h=hammer on
~=vibrato

e|-----------|
B|-----------|
G|-8-9-11-12-|
D|-x-x-x--x--|
A|-7-7-9--10-|
E|-----------|

e|-----------|
B|-----------|
G|-8-9-11-12-| X3
D|-x-x-x--x--|
A|-6-7-9--10-|
E|-----------|

e|-----------|
B|-12-10-8-7-|
G|-x--x--x-x-|
D|-9--7--5-4-|
A|-----------|
E|-----------|

e|-------------|
B|-12-10-13-17-|
G|-x--x--x--x--| X2
D|-9--7--10-14-|
A|-------------|
E|-------------|

e|-----------|
B|-12-10-8-7-|
G|-x--x--x-x-|
D|-9--7--5-4-|
A|-----------|
E|-----------|

e|----------------------|
B|----------------------|
G|-8-----------8--8--8--|
D|-x-----------x--x--x--|
A|-6h7h6-6h7h6-6~-6~-6~-|
E|----------------------|
h=hammer on
~=vibrato
Добавлено: 26.03.2012
Другие материалы по этой песне:
  • Аккорды и текст

Страница создана 26.03.2012
http://primanota.ru/blonde-redhead/justin-joyous-chords.htm
Привет, Гость.
Предлагаем пройти революционный курс по гитаре.
Подарок от PrimaNota.Ru, забирай!