PrimaNota.ru - самый крупный в мире бесплатный архив песенных текстов, аккордов, табулатур и нот


Blink 182 - First Day - аккорды и текст, таба, видео

Регистрация Запомнить меня
Войти через:  Facebook Google Twitter Vk Yandex Mail.ru

Blink 182 - First Day - аккорды и текст, таба, видео

Печатать
Просмотров: 275
First Day
Blink 182
		   Just play like this:

Riff A

e|--------------------------------------------------------------------------------------|
B|---5-1---1---3-1---1---3-1---1---3-1-----0---5-1---1---3-1---1---3-1---1---3-1---0---0|
G|-------0---0-----0---0-----0---0-----0-0---0-----0---0-----0---0-----0---0-----0---0--|
D|--------------------------------------------------------------------------------------|
A|--------------------------------------------------------------------------------------|
E|--------------------------------------------------------------------------------------|

Verse

e|--------|
B|--------|
G|---5----|
D|---X----|
A|---3----|
E|--------|

Riff B

e|------------------------------------------------------------------|
B|------------------------------------------------------------------|
G|-5-5--5---5-5-5---5-5-5---5-5-5---5-5--5---5-5--5---5-5-5---5-5-5-|
D|------------------------------------------------------------------|
A|------------------------------------------------------------------|
E|------------------------------------------------------------------|

Chorus

e|-------------------------------------------------------------------------|
B|-------------------------------------------------------------------------|
G|------------------------------------------2---2---2---2------------------|
D|--5--5--5-------------5--5--5-------------2---2---2---2---3---3\5--------|
A|--3--3--3-------------2--2--2-------------0---0---0---0---3---3\5---0----|
E|----------------------------------------------------------1---1\5---0----|

e|----------------------------------------------------------------------------|
B|-5--5--5---5---5--5--3--3--3---3---3---1--1--1---1---1----------------------|
G!-5--5--5---5---5--5--0--0--0---0---0---2--2--2---2---2----------------------|
D|-5--5--5---5---5--5--0--0--0---0---0---2--2--2---2---2---3---3--3--5--------|
A|-3--3--3---3---3--3--2--2--2---2---2---0--0--0---0---0---3---3--3--5--0--0--|
E|---------------------------------------------------------1---1--1--3--0--0--|

Interlude

e|---------------------------------------------------------------------------------------
B|---------------------------------------------------------------------------------------
G|---------------------------------------------------------------------------------------
D|-5--5--5--5--5--5--5--5----------------------------------------------------------------
A|-3--3--3--3--3--3--3--3----------------------------------------------------------------
E|-------------------------0--0--0--0--0--0--0---1--1--1--1--1--1--1--3--3--3--3--3--3--3

e|---------------------------------------------------------------------------------------
B|---------------------------------------------------------------------------------------
G|---------------------------------------------------------------------------------------
D|---------------------------------------------------------------------------------------
A|----3--3--3--3--3--3--3----------------------------------------------------------------
E|-3-----------------------0--0--0--0--0--0--0--1--1--1--1--1--1--1---3--3--3--3--3--3--3

-----------------------------------------------------------------------------------------
-----------------------------------------------------------------------------------------
-----5--5--5--5--5--5--5---9--9--9--9\5--5---10--10--10-10\5--5--5---7--7--7--7--7--7---------X--X--X--X--X--X--X---X--X--X--X----X----X---X---X--X----X--X---X--X--X--X--X--X----
-----3--3--3--3--3--3--3---7--7--7--7-3--3----7---7---7--7-3--3--3---5--5--5--5--5--5----
-----------------------------------------------------------------------------------------

-----------------------------------------------------------------------------------------
-----------------------------------------------------------------------------------------
-7\5--5--5--5--5--5--5---9--9--9--9\5--5--5---10--10--10--10\5--5--5---7--7--7--7--7--7-7
-X----X--X--X--X--X--X---X--X--X--X----X--X----X---X---X---X----X--X---X--X--X--X--X--X-X
-5-3--3--3--3--3--3--3---7--7--7--7-3--3--3----8---8---8---8-3--3--3---5--5--5--5--5--5-5
-----------------------------------------------------------------------------------------

Coda

C G/B Am F5 G5     
Добавлено: 14.10.2013
Другие материалы по этой песне:
  • Аккорды и текст

Страница создана 08.10.2013
http://primanota.ru/blink-182/first-day-chords.htm
Привет, Гость.
Предлагаем пройти революционный курс по гитаре.
Подарок от PrimaNota.Ru, забирай!