PrimaNota.ru - самый крупный в мире бесплатный архив песенных текстов, аккордов, табулатур и нот


Blink 182 - Aliens Exists - аккорды и текст, видео

Регистрация Запомнить меня
Войти через:  Facebook Google Twitter Vk Yandex Mail.ru

Blink 182 - Aliens Exists - аккорды и текст, видео

Печатать
Просмотров: 234
Уроки эстрадного вокала в Санкт-Петербурге
Aliens Exists
Blink 182
aliens exist
enema of the state

by Azani Fahzan

[intro]

e-----------------------
b-----------------------
g---444444444444--4-----
d---444444444444--4-----
a---222222222222--2-----
E-----------------------
   p.mute............

[verse 1]

e--------------------------------------------
b--------------------------------------------
g---44444444---------------------------------
d---44444444-44444444-66666666-22222222------
a---22222222-44444444-66666666-22222222------
E------------22222222-44444444-00000000------
    p.mute.................................

[verse 2]

e------------------------------------------
b------------------------------------------
g--44444444-66666666-----------------------
d--44444444-66666666-66666666-22222222-----
a--22222222-44444444-66666666-22222222-----
E--------------------44444444-00000000-----
   p.mute...............................

[verse 3]

e------------------------------------------
b------------------------------------------
g--44444444--------------------------------
d--44444444-22222222-66666666-22222222-----
a--22222222-22222222-66666666-22222222-----
E-----------00000000-44444444-00000000-----
   p.mute................................

[chorus]

e--------------------------------------------------------------------------
b--------------------------------------------------------------------------
g--4--4444-----------4--4444-----------------------------------------------
d--4--4444--4--4444--4--4444--4--4444-------------------9---9---9---9------
a--2--2222--4--4444--2--2222--4--4444---6---6---6---6--7-7-7-7-7-7-7-7-----
E-----------2--2222-----------2--2222--4-4-4-4-4-4-4-4---------------------

e-------------------------
b-------------------------
g--------4----------4-----
d--4--2--4----4--2--4-----
a--4--2--2----4--2--2-----
E--2--0-------2--0--------

[bridge]

e----------------------------------------------------------
b----------------------------------------------------------
g--4-4-4-4-4-4-4-4-4-4-4-4-4-4-4-4-4-4-4-4-4-4-4-4-4-4-----
d--x-x-x-x-x-x-x-x-x-x-x-x-x-x-x-x-x-x-x-x-x-x-x-x-x-x-----
a--2-2-2-2-2-2-2-2-2-2-2-2-2-2-2-2-2-2-2-2-2-2-2-2-2-2-----
E----------------------------------------------------------

e----------------------------------------------------------------------
b----------------------------------------------------------------------
g--8-8-8-8-8-8-8-8-6-6-6-6-6-6-6-6-9-9-9-9-9-9-9-9-8-8-8-8-8-8-8-8-----
d--x-x-x-x-x-x-x-x-x-x-x-x-x-x-x-x-x-x-x-x-x-x-x-x-x-x-x-x-x-x-x-x-----
a--6-6-6-6-6-6-6-6-4-4-4-4-4-4-4-4-7-7-7-7-7-7-7-7-6-6-6-6-6-6-6-6-----
E----------------------------------------------------------------------

[after bridge]

e---------------------------------------------
b---------------------------------------------
g--------------------------------44444444-----
d--66666666--44444444--22222222--44444444-----
a--66666666--44444444--22222222--22222222-----
E--44444444--22222222--00000000---------------

Intro
Pickslide
Verse riff 1 (unmuted)
Verse riff 1 x2
Verse riff 2 x1
Verse riff 3 x1
Chorus
Verse riff 1 (unmuted)
Verse riff 1 x2
Verse riff 2 x1
Verse riff 3 x1
Chorus
Bridge
After Bridge x2
Chorus

ALIENSEXISTS
enemaofthestate

Hey mom...
there's something in the back room
Hope it's not that creature from above
You used to read me stories, as if my dreams are boring
We all know conspiracies are dumb

What if people knew that these were real? [real]
leave my closet door open all night
I know the CIA would say
What you hear is all here say
Wish someone would tell me what was right

Up all night long and there's something very wrong
And I know it must be late, been gone since yesterday
I'm not like you guys; I'm not like you

I'm still a skeptic, yes you know me[you know me]
Been best friends and will be until we die
I got an injection, a fear from the abduction
My best friend thinks I'm just telling lies
Alright...

Up all night long and there's something very wrong
And I know it must be late, been gone since yesterday
I'm not like you guys; I'm not like you

Dark and scary, ordinary, explanation, information
Nice to know ya', paranoia
Where's my mother?
By my father

Up all night long and there's something very wrong
And I know it must be late, been gone since yesterday
I'm not like you guys,
Swell majestic lies

Any mistakes written, do tell me...(t1n_clash@hotmail.com)












_________________________________________________________________
Send and receive Hotmail on your mobile device: http://mobile.msn.com
     
Добавлено: 07.12.2013
Другие материалы по этой песне:
  • Аккорды и текст

Страница создана 12.08.2013
http://primanota.ru/blink-182/aliens-exists-chords.htm
Привет, Гость.
Предлагаем пройти революционный курс по гитаре.
Подарок от PrimaNota.Ru, забирай!