PrimaNota.ru - самый крупный в мире бесплатный архив песенных текстов, аккордов, табулатур и нот


Blink 182 - Adams Song V2 - таба, видео

Регистрация Запомнить меня
Войти через:  Facebook Google Twitter Vk Yandex Mail.ru

Blink 182 - Adams Song V2 - таба, видео

Печатать
Просмотров: 166
Уроки эстрадного вокала в Санкт-Петербурге
Title :Adam's Song
Author:Blink-182
4/4
136
By Josh Gentry@ houhou333@aol.com
This IS the most accurate version out their but if you think its wrong
or just want to congradulate me on my superb job of tabbing this masterpiece
email me at houhou333@aol.com


Tablature


|------------------|------------------|------------------|------------------=
|------------------|------------------|------------------|------------------=
|------------------|------------------|------------------|------------------=
|----4--0-----4--0-|----4--0-----4--0-|----4--0-----4--0-|----4--0-----4--0-=
|-2--------2-------|-0--------0-------|------------------|------------------=
|------------------|------------------|-3--------3-------|-0--------3-------=



|------------------|------------------|------------------|------------------=
|------------------|------------------|------------------|------------------=
|------------------|------------------|------------------|------------------=
|----4--0-----4--0-|----4--0-----4--0-|----4--0-----4--0-|----4--0-----4--0-=
|-2--------2-------|-0--------0-------|------------------|------------------=
|------------------|------------------|-3--------3-------|-0--------3-------=



|------------------------|------------------------|------------------------|
|------------------------|------------------------|------------------------|
|------------------------|------------------------|------------------------|
|-4--4--4--4--4--4--4--4-|------------------------|------------------------|
|-5--5--5--5--5--5--5--5-|-5--5--5--5--5--5--5--5-|-9--9--9--9--9--9--9--9-|
|------------------------|-3--3--3--3--3--3--3--3-|-7--7--7--7--7--7--7--7-|



|------------------------|------------------------|------------------------|
|------------------------|------------------------|------------------------|
|------------------------|------------------------|------------------------|
|------------------------|-4--4--4--4--4--4--4--4-|------------------------|
|-5--5--5--5--5--5--5--5-|-5--5--5--5--5--5--5--5-|-5--5--5--5--5--5--5--5-|
|-3--3--3--3--3--3--3--3-|------------------------|-3--3--3--3--3--3--3--3-|



|------------------------|------------------------|------------------------|
|------------------------|------------------------|------------------------|
|------------------------|------------------------|------------------------|
|------------------------|------------------------|-4--4--4--4--4--4--4--4-|
|-9--9--9--9--9--9--9--9-|-5--5--5--5--5--5--5--5-|-5--5--5--5--5--5--5--5-|
|-7--7--7--7--7--7--7--7-|-3--3--3--3--3--3--3--3-|------------------------|



|------------------------|------------------------|------------------------|
|------------------------|------------------------|------------------------|
|------------------------|------------------------|------------------------|
|------------------------|------------------------|------------------------|
|-5--5--5--5--5--5--5--5-|-9--9--9--9--9--9--9--9-|-5--5--5--5--5--5--5--5-|
|-3--3--3--3--3--3--3--3-|-7--7--7--7--7--7--7--7-|-3--3--3--3--3--3--3--3-|



|------------------------|------------------------|------------------------|
|------------------------|------------------------|------------------------|
|------------------------|------------------------|------------------------|
|-4--4--4--4--4--4--4--4-|------------------------|------------------------|
|-5--5--5--5--5--5--5--5-|-5--5--5--5--5--5--5--5-|-9--9--9--9--9--9--9--9-|
|------------------------|-3--3--3--3--3--3--3--3-|-7--7--7--7--7--7--7--7-|



|------------------------|------------------|------------------|
|------------------------|------------------|------------------|
|------------------------|-------0--------0-|-------0--------0-|
|------------------------|----7--------7----|----9--------9----|
|-5--5--5--5--5--5--5--5-|-5--------5-------|-7--------7-------|
|-3--3--3--3--3--3--3--3-|------------------|------------------|



|------------------|------------------|------------------|------------------=
|------------------|------------------|------------------|------------------= 
|------------------|------------------|-------0--------0-|-------0--------0-=
|----4--0-----4--0-|----4--0-----4--0-|----7--------7----|----9--------9----=
|-2--------2-------|------------------|-5--------5-------|-7--------7-------= 
|------------------|-3--------3-------|------------------|------------------= 



|------------------|------------------|------------------------|
|------------------|------------------|------------------------|
|------------------|------------------|-7--7--7--7--7--7--7--7-|
|----4--0-----4--0-|----4--0-----4--0-|------------------------|
|-2--------2-------|------------------|-5--5--5--5--5--5--5--5-|
|------------------|-3--------3-------|------------------------|



|------------------------|------------------------|------------------------|
|------------------------|------------------------|-8--8--8--8--8--8--8--8-|
|-9--9--9--9--9--9--9--9s|-4--4--4--4--4--4--4--4-|------------------------|
|------------------------|------------------------|-5--5--5--5--5--5--5--5-|
|-7--7--7--7--7--7--7--7s|-2--2--2--2--2--2--2--2-|------------------------|
|------------------------|------------------------|------------------------|



|------------------------|------------------------|------------------------|
|------------------------|------------------------|------------------------|
|-7--7--7--7--7--7--7--7-|-9--9--9--9--9--9--9--9-|-4--4--4--4--4--4--4--4-|
|------------------------|------------------------|------------------------|
|-5--5--5--5--5--5--5--5-|-7--7--7--7--7--7--7--7s|-2--2--2--2--2--2--2--2-|
|------------------------|------------------------|------------------------|



|------------------------|------------------------|------------------------|
|------------------------|------------------------|------------------------|
|------------------------|-7--7--7--7--7--7--7--7-|-9--9--9--9--9--9--9--9s|
|-5--5--5--5--5--5--5--5-|------------------------|------------------------|
|------------------------|-5--5--5--5--5--5--5--5-|-7--7--7--7--7--7--7--7s|
|-3--3--3--3--3--3--3--3-|------------------------|------------------------|



|------------------------|------------------------|------------------------|
|------------------------|------------------------|------------------------|
|11-11-11-11-11-11-11-11-|12-12-12-12-12-12-12-12-|-7--7--7--7--7--7--7--7-|
|------------------------|------------------------|------------------------|
|-9--9--9--9--9--9--9--9-|10-10-10-10-10-10-10-10-|-5--5--5--5--5--5--5--5-|
|------------------------|------------------------|------------------------|



|------------------------|------------------------|------------------------|
|------------------------|------------------------|------------------------|
|-9--9--9--9--9--9--9--9s|11-11-11-11-11-11-11-11-|12-12-12-12-12-12-12-12-|
|------------------------|------------------------|------------------------|
|-7--7--7--7--7--7--7--7s|-9--9--9--9--9--9--9--9-|10-10-10-10-10-10-10-10-|
|------------------------|------------------------|------------------------|



|------------------|------------------|------------------|------------------=
|------------------|------------------|------------------|------------------=
|------------------|------------------|------------------|------------------=
|----4--0-----4--0-|----4--0-----4--0-|----4--0-----4--0-|----4--0-----4--0-=
|-2--------2-------|-0--------0-------|------------------|------------------=
|------------------|------------------|-3--------3-------|-0--------3-------=



|------------------|------------------|------------------|------------------=
|------------------|------------------|------------------|------------------=
|------------------|------------------|------------------|------------------=
|----4--0-----4--0-|----4--0-----4--0-|----4--0-----4--0-|----4--0-----4--0-=
|-2--------2-------|-0--------0-------|------------------|------------------=
|------------------|------------------|-3--------3-------|-0--------3-------=



|------------------------|------------------------|------------------------|
|------------------------|------------------------|------------------------|
|------------------------|------------------------|------------------------|
|-4--4--4--4--4--4--4--4-|------------------------|------------------------|
|-5--5--5--5--5--5--5--5-|-5--5--5--5--5--5--5--5-|-9--9--9--9--9--9--9--9-|
|------------------------|-3--3--3--3--3--3--3--3-|-7--7--7--7--7--7--7--7-|



|------------------------|------------------------|------------------------|
|------------------------|------------------------|------------------------|
|------------------------|------------------------|------------------------|
|------------------------|-4--4--4--4--4--4--4--4-|------------------------|
|-5--5--5--5--5--5--5--5-|-5--5--5--5--5--5--5--5-|-5--5--5--5--5--5--5--5-|
|-3--3--3--3--3--3--3--3-|------------------------|-3--3--3--3--3--3--3--3-|



|------------------------|------------------------|------------------------|
|------------------------|------------------------|------------------------|
|------------------------|------------------------|------------------------|
|------------------------|------------------------|-4--4--4--4--4--4--4--4-|
|-9--9--9--9--9--9--9--9-|-5--5--5--5--5--5--5--5-|-5--5--5--5--5--5--5--5-|
|-7--7--7--7--7--7--7--7-|-3--3--3--3--3--3--3--3-|------------------------|



|------------------------|------------------------|------------------------|
|------------------------|------------------------|------------------------|
|------------------------|------------------------|------------------------|
|------------------------|------------------------|------------------------|
|-5--5--5--5--5--5--5--5-|-9--9--9--9--9--9--9--9-|-5--5--5--5--5--5--5--5-|
|-3--3--3--3--3--3--3--3-|-7--7--7--7--7--7--7--7-|-3--3--3--3--3--3--3--3-|



|------------------------|------------------------|------------------------|
|------------------------|------------------------|------------------------|
|------------------------|------------------------|------------------------|
|-4--4--4--4--4--4--4--4-|------------------------|------------------------|
|-5--5--5--5--5--5--5--5-|-5--5--5--5--5--5--5--5-|-9--9--9--9--9--9--9--9-|
|------------------------|-3--3--3--3--3--3--3--3-|-7--7--7--7--7--7--7--7-|



|------------------------|------------------|------------------|
|------------------------|------------------|------------------|
|------------------------|-------0--------0-|-------0--------0-|
|------------------------|----7--------7----|----9--------9----|
|-5--5--5--5--5--5--5--5-|-5--------5-------|-7--------7-------|
|-3--3--3--3--3--3--3--3-|------------------|------------------|



|------------------|------------------|------------------|------------------=
|------------------|------------------|------------------|------------------=
|------------------|------------------|-------0--------0-|-------0--------0-=
|----4--0-----4--0-|----4--0-----4--0-|----7--------7----|----9--------9----=
|-2--------2-------|------------------|-5--------5-------|-7--------7-------=
|------------------|-3--------3-------|------------------|------------------=



|------------------|------------------|------------------------|
|------------------|------------------|------------------------|
|------------------|------------------|-7--7--7--7--7--7--7--7-|
|----4--0-----4--0-|----4--0-----4--0-|------------------------|
|-2--------2-------|------------------|-5--5--5--5--5--5--5--5-|
|------------------|-3--------3-------|------------------------|



|------------------------|------------------------|------------------------|
|------------------------|------------------------|-8--8--8--8--8--8--8--8-|
|-9--9--9--9--9--9--9--9s|-4--4--4--4--4--4--4--4-|------------------------|
|------------------------|------------------------|-5--5--5--5--5--5--5--5-|
|-7--7--7--7--7--7--7--7s|-2--2--2--2--2--2--2--2-|------------------------|
|------------------------|------------------------|------------------------|



|------------------------|------------------------|------------------------|
|------------------------|------------------------|------------------------|
|-7--7--7--7--7--7--7--7-|-9--9--9--9--9--9--9--9-|-4--4--4--4--4--4--4--4-|
|------------------------|------------------------|------------------------|
|-5--5--5--5--5--5--5--5-|-7--7--7--7--7--7--7--7s|-2--2--2--2--2--2--2--2-|
|------------------------|------------------------|------------------------|



|------------------------|------------------------|------------------------|
|------------------------|------------------------|------------------------|
|------------------------|-7--7--7--7--7--7--7--7-|-9--9--9--9--9--9--9--9s|
|-5--5--5--5--5--5--5--5-|------------------------|------------------------|
|------------------------|-5--5--5--5--5--5--5--5-|-7--7--7--7--7--7--7--7s|
|-3--3--3--3--3--3--3--3-|------------------------|------------------------|



|------------------------|------------------------|------------------------|
|------------------------|------------------------|------------------------|
|11-11-11-11-11-11-11-11-|12-12-12-12-12-12-12-12-|-7--7--7--7--7--7--7--7-|
|------------------------|------------------------|------------------------|
|-9--9--9--9--9--9--9--9-|10-10-10-10-10-10-10-10-|-5--5--5--5--5--5--5--5-|
|------------------------|------------------------|------------------------|



|------------------------|------------------------|------------------------|
|------------------------|------------------------|------------------------|
|-9--9--9--9--9--9--9--9s|11-11-11-11-11-11-11-11-|12-12-12-12-12-12-12-12-|
|------------------------|------------------------|------------------------|
|-7--7--7--7--7--7--7--7s|-9--9--9--9--9--9--9--9-|10-10-10-10-10-10-10-10-|
|------------------------|------------------------|------------------------|



|------------------------|------------------------|------------------------|
|------------------------|------------------------|------------------------|
|-------0--------0-------|-------0--------0-------|-------0--------0-------|
|----4--------4--------4-|----4--------4--------4-|----4--------4--------4-|
|-5--------5--------5----|-5--------5--------5----|-5--------5--------5----|
|------------------------|------------------------|------------------------|



|------------------------|------------------------|------------------------|
|------------------------|------------------------|------------------------|
|-------0----------------|-------0-----0----------|-------0----------------|
|----4-----0-----0-----0-|----4-----------4-----4-|----4--------4-----0----|
|-5-----------5-----5----|-5--------5--------5----|-5--------5-----5-----5-|
|------------------------|------------------------|------------------------|



|---------------------|------------------|------------------------|
|---------------------|------------------|------------------------|
|---------------------|------------------|-------0-----0----------|
|-------2-----2-----2h|-0-----4--------0-|----4-----------4-----4-|
|----2----------------|----0--------2----|-5--------5--------5----|
|-5--------5-----5----|----------5-------|------------------------|



|------------------------|---------------------|---------------------|
|------------------------|---------------------|---------------------|
|-------0----------------|---------------------|----------------0----|
|----4--------4-----0----|-------2-----2-----2h|-0-----4-----4-------|
|-5--------5-----5-----5-|----2----------------|----5-----5--------5-|
|------------------------|-5--------5-----5----|---------------------|



|------------------------|------------------------|------------------------|
|------------------------|------------------------|------------------------|
|-------7--------7-------|-7--------7--------7----|-------7--------7-------|
|----0--------0--------0-|-------0--------0-----0-|----0--------0--------0-|
|-5--------5--------5----|----5--------5----------|-5--------5--------5----|
|------------------------|------------------------|------------------------|



|------------------------|------------------------|------------------------|
|------------------------|------------------------|------------------------|
|-7--------7--------7----|-------7--------7-------|-7--------7--------7----|
|-------0--------0-----0-|----0--------0--------0-|-------0--------0-----0-|
|----5--------5----------|-5--------5--------5----|----5--------5----------|
|------------------------|------------------------|------------------------|



|------------------------|------------------------|------------------------|
|------------------------|------------------------|------------------------|
|-------7--------7-------|-7--------7--------7----|-------7--------7-------|
|----0--------0--------0-|-------0--------0-----0-|----0--------0--------0-|
|-5--------5--------5----|----5--------5----------|-5--------5--------5----|
|------------------------|------------------------|------------------------|



|------------------------|------------------------|------------------------|
|------------------------|------------------------|------------------------|
|-7--------7--------7----|-------7--------7-------|-7--------7--------7----|
|-------0--------0-----0-|----0--------0--------0-|-------0--------0-----0-|
|----5--------5----------|-5--------5--------5----|----5--------5----------|
|------------------------|------------------------|------------------------|



|------------------------|------------------------|------------------------|
|------------------------|------------------------|------------------------|
|-7--7--7--7--7--7--7--7-|-9--9--9--9--9--9--9--9s|-4--4--4--4--4--4--4--4-|
|------------------------|------------------------|------------------------|
|-5--5--5--5--5--5--5--5-|-7--7--7--7--7--7--7--7s|-2--2--2--2--2--2--2--2-|
|------------------------|------------------------|------------------------|



|------------------------|------------------------|------------------------|
|-8--8--8--8--8--8--8--8-|------------------------|------------------------|
|------------------------|-7--7--7--7--7--7--7--7-|-9--9--9--9--9--9--9--9-|
|-5--5--5--5--5--5--5--5-|------------------------|------------------------|
|------------------------|-5--5--5--5--5--5--5--5-|-7--7--7--7--7--7--7--7s|
|------------------------|------------------------|------------------------|



|------------------------|------------------------|------------------------|
|------------------------|------------------------|------------------------|
|-4--4--4--4--4--4--4--4-|------------------------|-7--7--7--7--7--7--7--7-|
|------------------------|-5--5--5--5--5--5--5--5-|------------------------|
|-2--2--2--2--2--2--2--2-|------------------------|-5--5--5--5--5--5--5--5-|
|------------------------|-3--3--3--3--3--3--3--3-|------------------------|



|------------------------|------------------------|------------------------|
|------------------------|------------------------|------------------------|
|-9--9--9--9--9--9--9--9s|11-11-11-11-11-11-11-11-|12-12-12-12-12-12-12-12-|
|------------------------|------------------------|------------------------|
|-7--7--7--7--7--7--7--7s|-9--9--9--9--9--9--9--9-|10-10-10-10-10-10-10-10-|
|------------------------|------------------------|------------------------|



|------------------------|------------------------|------------------------|
|------------------------|------------------------|------------------------|
|-7--7--7--7--7--7--7--7-|-9--9--9--9--9--9--9--9s|11-11-11-11-11-11-11-11-|
|------------------------|------------------------|------------------------|
|-5--5--5--5--5--5--5--5-|-7--7--7--7--7--7--7--7s|-9--9--9--9--9--9--9--9-|
|------------------------|------------------------|------------------------|



|------------------------|---|---|
|------------------------|---|---|
|12-12-12-12-12-12-12-12-|---|---|
|------------------------|---|---|
|10-10-10-10-10-10-10-10-|---|---|
|------------------------|---|---|
     
Добавлено: 15.06.2013
Другие материалы по этой песне:
  • Аккорды и текст

Страница создана 15.06.2013
http://primanota.ru/blink-182/adams-song-v2-chords.htm
Привет, Гость.
Предлагаем пройти революционный курс по гитаре.
Подарок от PrimaNota.Ru, забирай!