PrimaNota.ru - самый крупный в мире бесплатный архив песенных текстов, аккордов, табулатур и нот


Blind Guardian - This Will Never End - текст песни, таба, видео

Регистрация Запомнить меня
Войти через:  Facebook Google Twitter Vk Yandex Mail.ru

Blind Guardian - This Will Never End - текст песни, таба, видео

Печатать
Просмотров: 154
Авторы музыки: Hansi Kürsch, André Olbrich
Авторы текста: Hansi Kürsch
Note:  The only lead work I put in was the solo.  All other transcriptions are the main
and not the lead fills played over top of them.

Key:
*=palm mute
><=pinch harmonic

Tuned a half step down.

Riff A
|----------------------------------|
|----------------------------------|
|----------------------------------|
|-----------5-5--------------------|
|-----5--------------5------6-6----|
|3333---3333-3--3333---3333-4-4----| 4x
 ****   **** *  ****   ****


Riff B
|---------------------------------------------|
|---------------------------------------------|
|---------------------------------------------|
|-----5p3-5-----------------------------------|
|----------------5p3-5--------------6-6-------|
|3333-------3333-------3333-6p4-6-3-4-4-------| 4x
 ****       ****       ****


Riff C
|---------------------|
|---------------------|
|---------------------|
|---------------------|
|5---4---5-----6-6----|
|3-------3-----4-4----| 4x


Riff D
|-----------------------------------------------|
|--------------------------------9----/8->8<----|
|-----------------------------------------------|
|-----------------------------------------------|
|-----------------------------------------------|
|333-333-333-333-333-333-333-333----------------| 2x
 *** *** *** *** *** *** *** ***


Riff E
|-----------------------------------------------------------|
|-----------------------------------------------------------|
|-----------------------------------------------------------|
|7-7777-7-7777-7-7777-7-7777-8-8888-8-8888-5-5555-5-5555----|
|5-5555-5-5555-5-5555-5-5555-6-6666-6-6666-3-3333-3-3333----|
|-----------------------------------------------------------| 2x
   ****   ****   ****   ****   ****   ****   ****   ****

Riff F
|-----------------------------------|
|-----------------------------------|
|-----------------------------------|
|5------10------8-------6-----------|
|5------10------8-------6-----------|
|3------8-------6-------4-----------| 4x


Riff G(played twice, here's part 1)
|-------------------------------------------|
|-------------------------------------------|
|-------------------------------------------|
|-------------------------------------------|
|5------------3-4p3---5------------3h>4<----|
|3-3333--6-66-------6-3-3333--6-66----------| 1x
   ****    **           ****    **

Riff G part 2
|-------------------------------------------------|
|8-8888-11----13-/14\13\11-8------11----13-/14----|
|-------------------------------------------------|
|5-5555-8--88-10-/11\10\8--5-5555-8--88-10-/11----|
|-------------------------------------------------|
|-------------------------------------------------| 1x
   ****    **                ****    **


Riff H
|-----------------------------------|
|-----------------------------------|
|7----------------------55555555----|
|7--------------6-------55555555----|
|5--------------6-------33333333----|
|---------------4-------------------| 2x
                        ********


Riff I
|-----------------------------------------------------------------|
|-----------------------------------------------------------------|
|-----------------------------------------------------------------|
|-----------------------------------------------------------------|
|5--(4)---------5--(4)---------5--(4)---------5--(4)--------------|
|3--------------3--------------3--------------3-------------------| 1x


Riff J
|-----------------------------------------|
|-----------------------------------------|
|-----------------------------------------|
|------------------------------------6----|
|------------------------------------4----|
|6h3333333-6h3333333-6h3333333-6h333------|
 ********* ********* ********* *****


Solo 1
|15~-----15~-----16h18p16p1516h18p16---15~-------------131516-151618-15~-----|
|----15~-----15~--------------------18-----15~-16~-----------------------15~-|
|--------------------------------------------------13~-----------------------|
|----------------------------------------------------------------------------|
|----------------------------------------------------------------------------|
|----------------------------------------------------------------------------|

 15~-----1516181615---15~-----15~-16b18-r16--------|
 ----15~-----------18-----15~---------------18-----|
 --------------------------------------------------|
 --------------------------------------------------|
 --------------------------------------------------|
 --------------------------------------------------|


Solo 3
|5-6-8-6-8-6-5-6-5---5-------------------------------------------------------|
|------------------8---8-7~~----------20b2120b2120b2120b2120b2120b2120b21----|
|----------------------------------------------------------------------------|
|----------------------------------------------------------------------------|
|----------------------------------------------------------------------------|
|----------------------------------------------------------------------------|

 -17-18-20-18-17----17----------------17~~--------15b17-17b18-/15-17-18-18b20-|
 ----------------20----20-19----19-20-----------------------------------------|
 ----------------------------20-----------------------------------------------|
 -----------------------------------------------------------------------------|
 -----------------------------------------------------------------------------|
 -----------------------------------------------------------------------------|

 ----|
 ----|
 ----|
 ----|
 ----|
 ----|


Solo 3 
|15h16p15p1313h15p13p1111h13p111010ph11p10p8-8-8b10-r8p6---8-6~-------------|
|--------------------------------------------------------8------------------|
|---------------------------------------------------------------------------|
|---------------------------------------------------------------------------|
|---------------------------------------------------------------------------|
|---------------------------------------------------------------------------|

 -15p13h15p1316p15p16h1518p18h18p1620p18h20p1822b23r222020h22p2218-20-18~----|
 ----------------------------------------------------------------------------|
 ----------------------------------------------------------------------------|
 ----------------------------------------------------------------------------|
 ----------------------------------------------------------------------------|
 ----------------------------------------------------------------------------|

 ----------------------------------------------------------------------------|
 -8h9p8p66ph8p6p4-9h11p9p88h9p8p6-11h13p11p99h11pp9p8-13h15p13p1111h13p11p9--|
 ----------------------------------------------------------------------------|
 ----------------------------------------------------------------------------|
 ----------------------------------------------------------------------------|
 ----------------------------------------------------------------------------|


 ---------------------15h16p15p1313h15p13p11-15h16h18p16p15h16p15-|
 ->18



	
	
Добавлено: 10.04.2012
Другие материалы по этой песне:

Страница создана 29.03.2012
http://primanota.ru/blind-guardian/this-will-never-end-chords.htm
Привет, Гость.
Предлагаем пройти революционный курс по гитаре.
Подарок от PrimaNota.Ru, забирай!