PrimaNota.ru - самый крупный в мире бесплатный архив песенных текстов, аккордов, табулатур и нот


Blind Guardian - Tommy - бас-таба, видео

Регистрация Запомнить меня
Войти через:  Facebook Google Twitter Vk Yandex Mail.ru

Blind Guardian - Tommy - бас-таба, видео

Печатать
Просмотров: 132
Tune down

F#||-------------------|-------------------|-------------------|
C#||-------------------|-------------------|-------------------|
G#||-------------------|--4----------------|--3----------------|
D#||--3----------------|-------------------|-------------------|


                                                               
---------------------|-------------------|--------------------|
---------------------|-------------------|--------------------|
--4--4----------4----|-------------------|--------------------|
---------------------|--3----------------|--4------------4----|


                                                            
-------------------|-------------------|-------------------|
-------------------|-------------------|-------------------|
-------------------|-------------------|-------------------|
--1----------------|--3----------------|--3----------------|


                                                                 
---------------------|-------------------|----------------------|
---------------------|-------------------|----------------------|
--4--4----------4----|-------------------|--6----5--------------|
---------------------|--4----------------|------------4----3----|


                                                             
-------------------|--------------------|-------------------|
-------------------|--------------------|-------------------|
-------------------|--4-----------------|-------------------|
--3----------------|---------------3----|--4----------------|


                                                                             
----------------------|--------------------------|--------------------------|
----------------------|--------------------------|--------------------------|
--6----5--------------|--------------------------|--8--8--8--8--8--8--8--8--|
------------4----3----|--7--7--7--7--7--7--7--7--|--------------------------|


                                                                              
--------------------------|-----------------------|--------------------------|
--------------------------|-----------------------|--------------------------|
--------------------------|--10----9--------------|--------------------------|
--8--8--8--8--8--8--8--8--|-------------8----7----|--7--7--7--7--7--7--7--7--|


                                                                              
--------------------------|--------------------------|-----------------------|
--------------------------|--------------------------|-----------------------|
--8--8--8--8--8--8--8--8--|--------------------------|--10----9--------------|
--------------------------|--8--8--8--8--8--8--8--8--|-------------8----7----|


                                                                
|---------------------------|----------------------------------|
|*--------------------------|----------------------------------|
|*--------------------------|----------------------------------|
|---7--7--7--7--7--7--7--7--|--10--10--10--10--10--10--10--10--|


                                                                               
--------------------------|---------------------------||----------------------|
--------------------------|--------------------------*||------------6--6------|
--------------------------|--------------------------*||----------------------|
--7--7--7--7--7--7--7--7--|--3--3--3--3--3--3--3--3---||--4--4----------------|


                                                                             
----------------------|--------------------------|--------------------------|
--5--5----------------|--------------------------|--------------------------|
------------7----7----|--------------------------|--------------------------|
----------------------|--7--7--7--7--7--7--7--7--|--7--7--7--7--7--7--7--7--|


                                                      
--------------------------|--------------------------|
--------------------------|--------------------------|
--------------------------|--------------------------|
--3--3--3--3--3--3--3--3--|--5--5--5--5--5--5--5--5--|


                                                      
--------------------------|--------------------------|
--------------------------|--------------------------|
--------------------------|--------------------------|
--7--7--7--7--7--7--7--7--|--7--7--7--7--7--7--7--7--|


                                                      
--------------------------|--------------------------|
--------------------------|--------------------------|
--------------------------|--------------------------|
--3--3--3--3--3--3--3--3--|--2--2--2--2--2--2--2--2--|


                                                      
--------------------------|--------------------------|
--------------------------|--------------------------|
--------------------------|--------------------------|
--7--7--7--7--7--7--7--7--|--7--7--7--7--7--7--7--7--|


                                                      
--------------------------|--------------------------|
--------------------------|--------------------------|
--------------------------|--------------------------|
--3--3--3--3--3--3--3--3--|--5--5--5--5--5--5--5--5--|


                                                      
--------------------------|--------------------------|
--------------------------|--------------------------|
--------------------------|--------------------------|
--7--7--7--7--7--7--7--7--|--7--7--7--7--7--7--7--7--|


                                                      
--------------------------|--------------------------|
--------------------------|--------------------------|
--------------------------|--------------------------|
--3--3--3--3--3--3--3--3--|--2--2--2--2--2--2--2--2--|


                                                                             
--------------------------|--------------------------|----------------------|
--------------------------|--------------------------|----------------------|
--7--7--7--7--7--7--7--7--|--7--7--7--7--7--7--7--7--|----3----3----3----3--|
--------------------------|--------------------------|----------------------|


                                                                             
----------------------|--------------------------|--------------------------|
----------------------|--------------------------|--------------------------|
----2----2----2----2--|--7--7--7--7--7--7--7--7--|--7--7--7--7--7--7--7--7--|
----------------------|--------------------------|--------------------------|


                                                                         
----------------------|----------------------|--------------------------|
----------------------|----------------------|--------------------------|
----3----3----3----3--|----2----2----2----2--|--------------------------|
----------------------|----------------------|--7--7--7--7--7--7--7--7--|


                                                      
--------------------------|--------------------------|
--------------------------|--------------------------|
--8--8--8--8--8--8--8--8--|--7--7--7--7--7--7--7--7--|
--------------------------|--------------------------|


                                                      
--------------------------|--------------------------|
--------------------------|--------------------------|
--8--8--8--8--8--8--8--8--|--------------------------|
--------------------------|--7--7--7--7--7--7--7--7--|


                                                      
--------------------------|--------------------------|
--------------------------|--------------------------|
--8--8--8--8--8--8--8--8--|--7--7--7--7--7--7--7--7--|
--------------------------|--------------------------|


                                                                         
--------------------------|---------------------|-----------------------|
--------------------------|---------------------|-----------------------|
--6--6--6--6--6--6--6--6--|--2----3----2--------|--2--2--3--0--2--------|
--------------------------|---------------------|-----------------------|


                                                                         
--------------------------|-----------------------|---------------------|
--------------------------|-----------------------|---------------------|
--2--2--3--0--2--2--3--0--|--2--2--3--0--2--------|---------------------|
--------------------------|-----------------------|--2----3----2--------|


                                                                           
-----------------------|--------------------------|-----------------------|
-----------------------|--------------------------|-----------------------|
-----------------------|--------------------------|-----------------------|
--2--2--3--0--2--------|--2--2--3--0--2--2--3--0--|--2--2--3--0--2--------|


                                                                
|---------------------------|----------------------------------|
|*--------------------------|----------------------------------|
|*--------------------------|----------------------------------|
|---7--7--7--7--7--7--7--7--|--10--10--10--10--10--10--10--10--|


                                                        
--------------------------|---------------------------||
--------------------------|--------------------------*||
--------------------------|--------------------------*||
--7--7--7--7--7--7--7--7--|--3--3--3--3--3--3--3--3---||


                                                                             
------------------------|------------------------|--------------------------|
------------------------|------------------------|--------------------------|
--3--3----3--3--3----3--|--3--3----3--3--3----3--|--2--2--2--2--2--2--2--2--|
------------------------|------------------------|--------------------------|


                                                              
--------------------------|----------------------------------|
--------------------------|-----------4----------------------|
--5--5--5--5--5--5--5--5--|---------------------------3------|
--------------------------|--2--2--2---------2--2--2---------|


                                                              
----------------------------------|--------------------------|
-----------4----------------------|--------------------------|
---------------------------3------|--2--2--2--2--2--2--2--2--|
--2--2--2---------2--2--2---------|--------------------------|


                                                              
--------------------------|----------------------------------|
--------------------------|-----------4----------------------|
--5--5--5--5--5--5--5--5--|---------------------------3------|
--------------------------|--2--2--2---------2--2--2---------|


                                                              
----------------------------------|--------------------------|
-----------4----------------------|--------------------------|
---------------------------3------|--7--7--7--7--7--7--7--7--|
--2--2--2---------2--2--2---------|--------------------------|


                                                              
--------------------------|----------------------------------|
--------------------------|----------------------------------|
--8--8--8--8--8--8--8--8--|--10--10--10--10--10--10--10--10--|
--------------------------|----------------------------------|


                                                                          
-------------------|--------------------------|--------------------------|
-------------------|--------------------------|--------------------------|
-------------------|--7--7--7--7--7--7--7--7--|--8--8--8--8--8--8--8--8--|
--9----------------|--------------------------|--------------------------|


                                                                                
----------------------------------|----------------------|---------------------|
----------------------------------|----------------------|---------------------|
--10--10--10--10--10--10--10--10--|----------------------|--2----3----2--------|
----------------------------------|--9----10----9--------|---------------------|


                                                                           
-----------------------|--------------------------|-----------------------|
-----------------------|--------------------------|-----------------------|
--2--2--3--0--2--------|--2--2--3--0--2--2--3--0--|--2--2--3--0--2--------|
-----------------------|--------------------------|-----------------------|


                                                                         
---------------------|-----------------------|--------------------------|
---------------------|-----------------------|--------------------------|
---------------------|-----------------------|--------------------------|
--2----3----2--------|--2--2--3--0--2--------|--2--2--3--0--2--2--3--0--|


                                                     
-----------------------||---------------------------|
-----------------------||*--------------------------|
-----------------------||*--6--6--6--6--------------|
--2--2--3--0--2--------||---------------6--6--6--6--|


                           2x                                                  
---------------------------||--------------------------|----------------------|
--------------------------*||--------------------------|----------------------|
--8--8--8--8--7--7--7--7--*||--8--8--8--8--7--7--7--7--|--6----6----6----6----|
---------------------------||--------------------------|----------------------|


                                                                     
----------------------|----------------------|----------------------|
----------------------|----------------------|----------------------|
----------------------|--8----8----8----8----|--7----7----7----7----|
--6----6----6----6----|----------------------|----------------------|


                                                                  
----------------------|----------------------|-------------------|
----------------------|----------------------|-------------------|
--6----6----6----6----|----------------------|-------------------|
----------------------|--6----6----6----6----|--0----------------|


                                                                              
---------------------||---------------------------|--------------------------|
---------------------||*--------------------------|--------------------------|
--1--1------------1--||*--------------------------|--4--4--4--4--4--4--4--4--|
---------------------||---3--3--3--3--3--3--3--3--|--------------------------|


                                                                           
--------------------------|-----------------------||----------------------|
--------------------------|----------------------*||----------------------|
--------------------------|--6----5--------------*||--6----5--------------|
--4--4--4--4--4--4--4--4--|------------4----3-----||------------4----3----|


                                                        
|---------------------------|--------------------------|
|*--------------------------|--------------------------|
|*--------------------------|--8--8--8--8--8--8--8--8--|
|---7--7--7--7--7--7--7--7--|--------------------------|


                                                                               
--------------------------|-------------------------||------------------------|
--------------------------|-------------10----9----*||-------------10----9----|
--------------------------|--10----9---------------*||--10----9---------------|
--8--8--8--8--8--8--8--8--|-------------------------||------------------------|


                                                      
--------------------------|--------------------------|
--------------------------|--------------------------|
--------------------------|--------------------------|
--7--7--7--7--7--7--7--7--|--7--7--7--7--7--7--7--7--|


                                                      
--------------------------|--------------------------|
--------------------------|--------------------------|
--------------------------|--------------------------|
--3--3--3--3--3--3--3--3--|--5--5--5--5--5--5--5--5--|


                                                      
--------------------------|--------------------------|
--------------------------|--------------------------|
--------------------------|--------------------------|
--7--7--7--7--7--7--7--7--|--7--7--7--7--7--7--7--7--|


                                                      
--------------------------|--------------------------|
--------------------------|--------------------------|
--------------------------|--------------------------|
--3--3--3--3--3--3--3--3--|--2--2--2--2--2--2--2--2--|


                                                      
--------------------------|--------------------------|
--------------------------|--------------------------|
--------------------------|--------------------------|
--7--7--7--7--7--7--7--7--|--7--7--7--7--7--7--7--7--|


                                                      
--------------------------|--------------------------|
--------------------------|--------------------------|
--------------------------|--------------------------|
--3--3--3--3--3--3--3--3--|--5--5--5--5--5--5--5--5--|


                                                      
--------------------------|--------------------------|
--------------------------|--------------------------|
--------------------------|--------------------------|
--7--7--7--7--7--7--7--7--|--7--7--7--7--7--7--7--7--|


                                                      
--------------------------|--------------------------|
--------------------------|--------------------------|
--------------------------|--------------------------|
--3--3--3--3--3--3--3--3--|--2--2--2--2--2--2--2--2--|


                                                                             
--------------------------|--------------------------|----------------------|
--------------------------|--------------------------|----------------------|
--7--7--7--7--7--7--7--7--|--7--7--7--7--7--7--7--7--|----3----3----3----3--|
--------------------------|--------------------------|----------------------|


                                                                             
----------------------|--------------------------|--------------------------|
----------------------|--------------------------|--------------------------|
----2----2----2----2--|--7--7--7--7--7--7--7--7--|--7--7--7--7--7--7--7--7--|
----------------------|--------------------------|--------------------------|


                                                                 
----------------------|----------------------|------------------|
----------------------|----------------------|------------------|
----3----3----3----3--|----2----2----2----2--|------------------|
----------------------|----------------------|------------------|


                                                                         
------------------|--------------------------|--------------------------|
------------------|--------------------------|--------------------------|
------------------|--2--2--------2--2--------|--2--2--------2--2--------|
------------------|--------1--2--------1--2--|--------1--2--------1--2--|


                                                                 
------------------|------------------|--------------------------|
------------------|------------------|--------------------------|
------------------|------------------|--2--2--------2--2--------|
------------------|------------------|--------1--2--------1--2--|


                                                      
--------------------------|--------------------------|
--------------------------|--------------------------|
--2--2--------2--2--------|--7--7--7--7--7--7--7--7--|
--------1--2--------1--2--|--------------------------|


                                                                             
--------------------------|--------------------------|----------------------|
--------------------------|--------------------------|----------------------|
--6--6--6--6--6--6--6--6--|--------------------------|--8----8----8----8----|
--------------------------|--7--7--7--7--7--7--7--7--|----------------------|


                                                                 
------------------|---------------------|-----------------------|
------------------|---------------------|-----------------------|
------------------|--4----5----4--------|--4--4--5--2--4--------|
------------------|---------------------|-----------------------|


                                                      
--------------------------|--------------------------|
--------------------------|--------------------------|
--1--1--1--1--1--1--1--1--|--1--1--1--1--1--1--1--1--|
--------------------------|--------------------------|


                                                      
--------------------------|--------------------------|
--------------------------|--------------------------|
--------------------------|--1--1--1--1--1--1--1--1--|
--3--3--3--3--3--3--3--3--|--------------------------|


                                                      
--------------------------|--------------------------|
--------------------------|--------------------------|
--4--4--4--4--4--4--4--4--|--------------------------|
--------------------------|--4--4--4--4--4--4--4--4--|


                                                      
--------------------------|--------------------------|
--------------------------|--------------------------|
--6--6--6--6--6--6--6--6--|--------------------------|
--------------------------|--6--6--6--6--6--6--6--6--|


                                                                             
--------------------------|--------------------------|----------------------|
--------------------------|--------------------------|----------------------|
--5--5--5--5--5--5--5--5--|--5--5--5--5--5--5--5--5--|----------------------|
--------------------------|--------------------------|--3----3----3----3----|


                                                                     
----------------------|----------------------|----------------------|
----------------------|----------------------|----------------------|
----------------------|----------------------|----------------------|
--3----3----3----3----|--1----1----1----1----|--1----1----1----1----|


                                                      
--------------------------|--------------------------|
--------------------------|--------------------------|
--6--6--6--6--6--6--6--6--|--6--6--6--6--6--6--6--6--|
--------------------------|--------------------------|


                                                                       
--------------------------|--------------------|----------------------|
--------------------------|--------------------|----------------------|
--3--3--3--3--3--3--3--3--|-----------5--------|----------------------|
--------------------------|--1-----------------|----3----3----3----3--|


                                                                     
----------------------|----------------------|----------------------|
----------------------|----------------------|----------------------|
----------------------|----4----4----4----4--|----------------------|
----6----6----6----6--|----------------------|----4----4----4----4--|


                                                                         
----------------------|----------------------|--------------------------|
----------------------|----------------------|--------------------------|
----6----6----6----6--|----------------------|--5--5--6--3--5--5--6--3--|
----------------------|----6----6----6----6--|--------------------------|


                                                                           
-----------------------|--------------------------|-----------------------|
-----------------------|--------------------------|-----------------------|
--5--5--6--3--5--------|--5--5--6--3--5--5--6--3--|--5--5--6--3--5--------|
-----------------------|--------------------------|-----------------------|


                                                      
--------------------------|--------------------------|
--------------------------|--------------------------|
--7--7--7--7--7--7--7--7--|--8--8--8--8--8--8--8--8--|
--------------------------|--------------------------|


                                                       
----------------------------------|-------------------|
----------------------------------|-------------------|
--10--10--10--10--10--10--10--10--|-------------------|
----------------------------------|--9----------------|


                                                      
--------------------------|--------------------------|
--------------------------|--------------------------|
--7--7--7--7--7--7--7--7--|--8--8--8--8--8--8--8--8--|
--------------------------|--------------------------|


                                                                                
----------------------------------|----------------------|---------------------|
----------------------------------|----------------------|---------------------|
--10--10--10--10--10--10--10--10--|----------------------|--2----3----2--------|
----------------------------------|--9----10----9--------|---------------------|


                                                                           
-----------------------|--------------------------|-----------------------|
-----------------------|--------------------------|-----------------------|
--2--2--3--0--2--------|--2--2--3--0--2--2--3--0--|--2--2--3--0--2--------|
-----------------------|--------------------------|-----------------------|


                                                                         
---------------------|-----------------------|--------------------------|
---------------------|-----------------------|--------------------------|
---------------------|-----------------------|--------------------------|
--2----3----2--------|--2--2--3--0--2--------|--2--2--3--0--2--2--3--0--|


                                                                        
-----------------------|-----------------------|-----------------------|
-----------------------|-----------------------|-----------------------|
-----------------------|--9--9--9--9--9--------|-----------------------|
--2--2--3--0--2--------|-----------------------|--2--2--2--2--2--------|


                                                                            
--------------------------|--------------------------|---------------------|
--------------------------|--------------------------|---------------------|
--7--8--8--8--8--8--8--8--|--------------------------|--2----3----2--------|
--------------------------|--8--8--8--8--8--8--8--8--|---------------------|


                                                                              
-----------------------|--------------------------|--------------------------|
-----------------------|--------------------------|--------------------------|
--2--2--3--0--2--------|--7--8--8--8--8--8--8--8--|--------------------------|
-----------------------|--------------------------|--8--8--8--8--8--8--8--8--|


                                                                         
---------------------|-----------------------|--------------------------|
---------------------|-----------------------|--------------------------|
--2----3----2--------|--2--2--3--0--2--------|--2--2--3--0--2--2--3--0--|
---------------------|-----------------------|--------------------------|


                         
-----------------------||
-----------------------||
--2--2--3--0--2--------||
-----------------------||
Добавлено: 02.07.2012
Другие материалы по этой песне:

Страница создана 17.03.2012
http://primanota.ru/blind-guardian/tommy-chords.htm
Привет, Гость.
Предлагаем пройти революционный курс по гитаре.
Подарок от PrimaNota.Ru, забирай!