PrimaNota.ru - самый крупный в мире бесплатный архив песенных текстов, аккордов, табулатур и нот


Blind Guardian - Trial By Fire - текст песни, таба, бас-таба, видео

Регистрация Запомнить меня
Войти через:  Facebook Google Twitter Vk Yandex Mail.ru

Blind Guardian - Trial By Fire - текст песни, таба, бас-таба, видео

Печатать
Просмотров: 249
Artist: Blind Guardian
Song: Trial By Fire
Album: Somewhere Far Beyond

The chords are not completely accurate, but close.

-------------------------------------------------------|
-------------------------------------------------------|
-------------------------------------------------------|
-------------------------------------------------------|
-3-2-2-2-5-5-5-3-2-2-2-5-5-5---------------------------|
-1-0-0-0-3-3-3-1-0-0-0-3-3-3---------------------------|

-----------------------------------------4-3-----------|
---5-4-5-4-----------4----5-4-5-4----------------------|
-5---------5-3-3-3-5---5---------5-3-3-3---------------|
-------------------------------------------------------|
-------------------------------------------------------|
-------------------------------------------------------|X2

Have fun.
Добавлено: 03.03.2012
Другие материалы по этой песне:

Страница создана 03.03.2012
http://primanota.ru/blind-guardian/trial-by-fire-chords.htm
Привет, Гость.
Предлагаем пройти революционный курс по гитаре.
Подарок от PrimaNota.Ru, забирай!