PrimaNota.ru - самый крупный в мире бесплатный архив песенных текстов, аккордов, табулатур и нот


Blackmores Night - Possum Goes To Prague - аккорды и текст, таба, видео

Регистрация Запомнить меня
Войти через:  Facebook Google Twitter Vk Yandex Mail.ru

Blackmores Night - Possum Goes To Prague - аккорды и текст, таба, видео

Печатать
Просмотров: 311
Авторы музыки: Ritchie Blackmore

Possum Goes To Prague
Blackmores Night
[E-------0---0h7p0-5-3h5p3p0-0h3p0---------------0--------------------
H-----0---0----------------------0-----------------------------------
G-----------------------------------4h3h2h4-4-4---4-2-4-2h4p2p0------ } X2
D---------------------------------2-----------------------------5-4-2
A---7----------------------------------------------------------------
E--------------------------------------------------------------------

E----------8-12-15-14-12-11h14p11--------------------------------------------
H---------------------------------12-----------------------------------------
G-----9-12---------------------------11----------------------2---5-4h5p4-2---
D--10-----------------------------------13-9-----------2-4-5-----------------
A--------------------------------------------9-------2---------0-------------
E----------------------------------------------0-2-3-------------------------

E---------------5-3h5p3p0-0-------------------------------------------
H-----4---------------------0-3h5-53-1---------0----------------------
G---4---4---5-4-----------------------5h4h2-4---4-2h4p2---------------
D--------------------------------------------------------2-4-1-2------
A-2-------------------------------------------------------------------
E---------2-----------------------------------------------------------

E-----------------------------------------------------------2-3-2h3p2p0-----
H-------0-------0----------------0------------------------3-----------------
G-----0-------5----------------0-----9---7---5---4------2-------------------
D---4-------5-------5---7----9------------------------2---------------------
A-6-------7-------7---9---10-------0---0---0---0----0-----------------------
E---------------------------------------------------------------------------

E-----------------------------------------------3-2h3p2p0---0h2p0h2p0----
H----0----0----------------------------------3-----------0-0---------0---
G---0----5---------------2-0---0-4-2h4p2-0--2-2--------------------------
D--4----5----------2-4-5----2-2------------0-----------------------------
A-6----7----------2----------3----------------------------2-----------2--
E-----------0-2-3--------------------------------------------------------

E-------0---0h7p0-5-3h5p3p0-0h3p0---------------0--------------------
H-----0---0----------------------0-----------------------------------
G-----------------------------------4h3h2h4-4-4---4-2-4-2h4p2p0------ } X2
D---------------------------------2-----------------------------5-4-2
A---7----------------------------------------------------------------
E--------------------------------------------------------------------

E----------8-12-15-14-12-11h14p11--------------------------------------------
H---------------------------------12-----------------------------------------
G-----9-12---------------------------11----------------------2---5-4h5p4-2---
D--10-----------------------------------13-9-----------2-4-5-----------------
A--------------------------------------------9-------2---------0-------------
E----------------------------------------------0-2-3-------------------------

E---------------5-3h5p3p0-0-------------------------------------------
H-----4---------------------0-3h5-53-1---------0----------------------
G---4---4---5-4-----------------------5h4h2-4---4-2h4p2---------------
D--------------------------------------------------------2-4-1-2------
A-2-------------------------------------------------------------------
E---------2-----------------------------------------------------------

E-----------------1-0-8-7h8p7----
H--------1-0---0-4------------10-
G-----0-2---2--------------------
D--0-2---------------------------
A-2-----------2------------------
E--------------------------------

E-----7-0-11-12-14-15-14h15p14-12-11------------------12----------4---------
H----7------------------------------13-12h13p12-10-12---12-10-7--5----------
G---8-----------------------------------------------------------------------
D---------------------------------------------------------------------------
A---------------------------------------------------------------------------
E--7------------------------------------------------------------0-----------]
Добавлено: 22.11.2013
Другие материалы по этой песне:

Страница создана 16.03.2012
http://primanota.ru/blackmores-night/possum-goes-to-prague-chords.htm
Привет, Гость.
Предлагаем пройти революционный курс по гитаре.
Подарок от PrimaNota.Ru, забирай!