PrimaNota.ru - самый крупный в мире бесплатный архив песенных текстов, аккордов, табулатур и нот


Blackmores Night - Beyond The Sunset - аккорды и текст, таба, видео

Регистрация Запомнить меня
Войти через:  Facebook Google Twitter Vk Yandex Mail.ru

Blackmores Night - Beyond The Sunset - аккорды и текст, таба, видео

Печатать
Просмотров: 671
Уроки эстрадного вокала в Санкт-Петербурге
Авторы музыки: Ritchie Blackmore

Beyond The Sunset
Blackmores Night
1.
Eb|-----------------------------------------------------------------------------|
B.|-4~--------2-4-5-5/7-5-4~--------4-5-7-7/9-7-5~--------2-4-5-7-5-5~----4~----|
G.|-----------------------------------------------------------------------------|
D.|-----------------------------------------------------------------------------|
A.|-----------------------------------------------------------------------------|
Eb|-----------------------------------------------------------------------------|

2.
Eb|--------------------------------------------------------------------------------|
B.|-0~-----------------------------------------------------------------------------|
G.|-----------1-3-4-3-1-1h3p1----------------3-4-3-1~----------1-------------------|
D.|----------------------------4~--------1-4---------------------4-2-1h2p1~--------|
A.|--------------------------------------------------------------------------------|
Eb|--------------------------------------------------------------------------------|

3.
Eb|-------------*12--------|
B.|-------4~---------------|
G.|------------------------|
D.|------------------------|
A.|------------------------|
Eb|-0~---------------------|

4.
Eb|-----------------------------------------------------------------------------|
B.|-4~--------2-4-5-5/7-5-4~--------4-5-7-7/9-7-5~--------2-4-5-7-5-5~----4~----|
G.|-----------------------------------------------------------------------------|
D.|-----------------------------------------------------------------------------|
A.|-----------------------------------------------------------------------------|
Eb|-----------------------------------------------------------------------------|

5.
Eb|-8~--------5-7-8-8/10-8-7h8p7~--------3-5-7-8-7h8p7-5~--------5-3-1-0h1p0~----|
B.|------------------------------------------------------------------------------|
G.|------------------------------------------------------------------------------|
D.|------------------------------------------------------------------------------|
A.|------------------------------------------------------------------------------|
Eb|------------------------------------------------------------------------------|

6.
Eb|-0~----0-3h5/7~--------|
B.|-----------------------|
G.|-----------------------|
D.|-----------------------|
A.|-----------------------|
Eb|-----------------------|

7.
Eb|-----------------------------------------------------------------------------------|
B.|-4~--------4-5-7-5-4-2h4p2~--------2-4-5-4-2-0h2p0~--------------------------------|
G.|-----------------------------------------------------------1-3-4-3h4p3-1-3~--------|
D.|-----------------------------------------------------------------------------------|
A.|-----------------------------------------------------------------------------------|
Eb|-----------------------------------------------------------------------------------|

8.
Eb|-------------------------------------------------------------------------------|
B.|-4~--------4-5-7-5-4-2h4p2~--------2-4-5-4-2-2/5~--------5-7-7/9-7-5-4~--------|
G.|-------------------------------------------------------------------------------|
D.|-------------------------------------------------------------------------------|
A.|-------------------------------------------------------------------------------|
Eb|-------------------------------------------------------------------------------|

9.
Eb|-----------------------------------------------------------------------------|
B.|-4~--------2-4-5-5/7-5-4~--------4-5-7-7/9-7-5~--------2-4-5-7-5-5~----4~----|
G.|-----------------------------------------------------------------------------|
D.|-----------------------------------------------------------------------------|
A.|-----------------------------------------------------------------------------|
Eb|-----------------------------------------------------------------------------|

10.
Eb|-8~--------5-7-8-8/10-8-7h8p7~--------3-5-7-5-3-5~--------5-3-1-0-1-0-----------------------------------------|
B.|----------------------------------------------------------------------2-4-2-----------------------------2-4~--|
G.|----------------------------------------------------------------------------3-4-3-1-3-1-0-1-3-0---1-3-4-------|
D.|------------------------------------------------------------------------------------------------1-------------|
A.|--------------------------------------------------------------------------------------------------------------|
Eb|--------------------------------------------------------------------------------------------------------------|

11.
Eb|-----------------------------------------------------------------------------------|
B.|-4~--------4-5-7-5-4-2h4p2~--------2-4-5-4-2-0h2p0~--------------------------------|
G.|-----------------------------------------------------------1-3-4-3h4p3-1-3~--------|
D.|-----------------------------------------------------------------------------------|
A.|-----------------------------------------------------------------------------------|
Eb|-----------------------------------------------------------------------------------|

12.
Eb|-----------------------------------------------------------------------------------|
B.|-4~--------4-5-7-5-4-2h4p2~--------2-4-5-4-2-2/5~--------5-7-7/9-7-5-4h5p4~--------|
G.|-----------------------------------------------------------------------------------|
D.|-----------------------------------------------------------------------------------|
A.|-----------------------------------------------------------------------------------|
Eb|-----------------------------------------------------------------------------------|

13.
Eb|-7-5h7p5-3-0~--------------|
B.|---------------------------|
G.|---------------------------|
D.|---------------------------|
A.|---------------------------|
Eb|-----------------0~--------|

14.
Eb|-----------------------------------------------------------------------------|
B.|-4~--------2-4-5-5/7-5-4~--------4-5-7-7/9-7-5~--------2-4-5-7-5-5~----4~----|
G.|-----------------------------------------------------------------------------|
D.|-----------------------------------------------------------------------------|
A.|-----------------------------------------------------------------------------|
Eb|-----------------------------------------------------------------------------|

15.
Eb|------------------------------------------------------------------------------|
B.|-0~---------------------------------------------------------------------------|
G.|-----------1-3-3/4-3h4p3-1-1h3p1----------------3-4-6-4h6p4-1~----------------|
D.|----------------------------------4~--------1-4-------------------------------|
A.|------------------------------------------------------------------------------|
Eb|------------------------------------------------------------------------------|

16.
Eb|-----------------------------------------------|
B.|-----------------------------------------------|
G.|-4h6p4-3h4p3-1h3p1-0h1p0-----------------------|
D.|-------------------------1h2p1h2p1h2p1h2p1~----|
A.|-----------------------------------------------|
Eb|-----------------------------------------------|

17.
Eb|-------------------------------------------------0~---------------------|
B.|---------------------------2-4-5-4-7-4-4h5p4-2-4----4-2-0---0-----------|
G.|---------------------1-3-4--------------------------------3---3~--------|
D.|---------------1-3-4----------------------------------------------------|
A.|---------1-2-4----------------------------------------------------------|
Eb|-0-2-3-5----------------------------------------------------------------|

18.
Eb|-5~------------------------|
B.|-x-------------------------|
G.|-x-------------------------|
D.|-6~------------------------|
A.|-6~------------------------|
Eb|-5~------------------------|
Добавлено: 03.09.2015
Другие материалы по этой песне:

Страница создана 05.03.2012
http://primanota.ru/blackmores-night/beyond-the-sunset-chords.htm
Привет, Гость.
Предлагаем пройти революционный курс по гитаре.
Подарок от PrimaNota.Ru, забирай!