PrimaNota.ru - самый крупный в мире бесплатный архив песенных текстов, аккордов, табулатур и нот


Black Label Society - Rose Petalled Garden - текст песни, таба, видео

Регистрация Запомнить меня
Войти через:  Facebook Google Twitter Vk Yandex Mail.ru

Black Label Society - Rose Petalled Garden - текст песни, таба, видео

Печатать
Просмотров: 189
Tabbed by : BECKS

Tuning:
(Db Ab Db Gb Bb Eb) ...I think


Intro Backing x4 w/ Roto Vibe
|-----------------------------|---------------------------------|
|-----------------------------|---------------------------------|
|-----------------------------|---------------------------------|
|-------0---------0-------0---|-------3---------3-------3-------|
|---0-----0---0-----0---0---0-|---0------0---0-----0---0---0----|
|-6---6-----6---6-----6-------|-0----0-----0---0-----0----------|

Main Riff x2
|------------------------------|--------------------------------|
|------------------------------|--------------------------------|
|------------------------------|--------------------------------|
|-5-7-----------5^6r^5-3-5-5-3-|-5-7----------------------------|
|-3-5-5-5-5-3-5----------------|-3-5-5-5-5-3-6-5-3-6-5----------|
|------------------------------|-------------6-5-3-6-5-3--------|
                                                       *AH

|------------------------------|--------------------|
|------------------------------|--------------------|
|------------------------------|--------------------|
|-5-7-----------5^6r^5-3-5-5-3-|--------------------|
|-3-5-5-5-5-3-5----------------|-7-6-5-3-0-0-0-0----|
|------------------------------|-7-6-5-3-0-0-0-0----|

Verse
|---------------------------------------------------|
|---------------------------------------------------|
|---------------------------------------------------|
|---------------------------------------------------|
|-0-0-0-0-0-0-0-0-0-----0-0-----0-0-0-0-0-0-0-------|
|-0-0-0-0-0-0-0-0-0--3^-0-0--3^-0-0-0-0-0-0-0-------|

Chorus x2
|------------------------------|--------------------------------|
|------------------------------|--------------------------------|
|------------------------------|--------------------------------|
|-5-7-----------5^6r^5-3-5-5-3-|-5-7----------------------------|
|-3-5-5-5-5-3-5----------------|-3-5-5-5-5-3-6-5-3-6-5----------|
|------------------------------|-------------6-5-3-6-5-3--------|
                                                       *AH

                                                x4   End with
|------------------------------|--------------------|------|
|------------------------------|--------------------|------|
|------------------------------|--------------------|--5---|
|-5-7-----------5^6r^5-3-5-5-3-|--------------------|--3---|
|-3-5-5-5-5-3-5----------------|-7-6-5-3-0-0-0-0----|--5---|
|------------------------------|-7-6-5-3-0-0-0-0----|--0---|

Before Solo
|-------------------------------------|
|-------------------------------------|
|---------4-5----------4-5-----4------|
|-----3------------3---------3---3----|
|-3/5---5-----3/5----5-----5----------|
|-------------------------------------|


Solo:
                              
--------------------------------------------------|
--------------------------------------------------|
-----------------------------------------------14-|
--------------------------------------12-14-17----|
-----------12-------12-14----12-14-17-------------|
--12-14-17----14-17-------17----------------------|


                                                              
-------------------------------15-17b---|----17~-------------|
-------------------------15-17----------|--------------------|
--15----15----14-15~--16----------------|--------------------|
-----17----17---------------------------|--------------------|
----------------------------------------|--------------------|
----------------------------------------|--------------------|


                                                                   
----------15----------|--------------------|----------------------|
--------------17~-----|------15r-----------|------15~---------14r-|
----------------------|--------------------|----------------------|
----------------------|--------------------|----------------------|
----------------------|--------------------|----------------------|
----------------------|--------------------|----------------------|


                                                                             
-----------------------------------|------------------|--------------------|
------12----12-17-15-12------------|------------------|--------------------|
---------15-------------15-12-14~--|------------------|--11~---------------|
-----------------------------------|------------------|--------------------|
-----------------------------------|------------------|--------------------|
-----------------------------------|------------------|--------------------|


                                                               
-------------------|-----------------------|------------------|
-------------------|-----------------------|------------------|
------9~-----------|--11~---------9--12~---|------------------|
-------------------|-----------------------|------------------|
-------------------|-----------------------|------------------|
-------------------|-----------------------|------------------|


                                                                            
------------------------|--------------------------------------------------|
--14r-------------12/14-|--15-12-------15-12-------15-12-15-12-------16-13-|
------------------------|--------14-12-------14-12-------------14-12-------|
------------------------|--------------------------------------------------|
------------------------|--------------------------------------------------|
------------------------|--------------------------------------------------|


                                                              
----------------------------------------|--------------------|
--------17-14-------18-15-------19/-----|------17~-----------|
--15-13-------16-14-------18-15---------|--------------------|
----------------------------------------|--------------------|
----------------------------------------|--------------------|
----------------------------------------|--------------------|


                                                                                
--------------------|--------------|--------------------|------------------|
--------------------|--------------|--------------------|------------------|
--12~---------------|--------------|--10~---------------|------------------|
--------------------|--------------|--------------------|------------------|
--------------------|--------------|--------------------|------------------|
--------------------|--------------|--------------------|------------------|


                                                                                
--------------------|--------------|--------------------|------------------|
--------------------|--------------|--------------------|------------------|
--12~---------------|--------------|--10~---------------|------------------|
--------------------|--------------|--------------------|------------------|
--------------------|--------------|--------------------|------------------|
--------------------|--------------|--------------------|------------------|


                                                                                
--------------------|--------------|--------------------|------------------|
--------------------|--------------|--------------------|------------------|
--12r---------------|--------------|--10~---------------|------------------|
--------------------|--------------|--------------------|------------------|
--------------------|--------------|--------------------|------------------|
--------------------|--------------|--------------------|------------------|


                                                                                
--------------------|--------------|--------------------|------------------|
--------------------|--------------|--------------------|------------------|
--12r---------------|--------------|--10~---------------|------------------|
--------------------|--------------|--------------------|------------------|
--------------------|--------------|--------------------|------------------|
--------------------|--------------|--------------------|------------------|



Добавлено: 10.07.2012
Другие материалы по этой песне:
  • Аккорды и текст

Страница создана 10.07.2012
http://primanota.ru/black-label-society/rose-petalled-garden-chords.htm
Привет, Гость.
Предлагаем пройти революционный курс по гитаре.
Подарок от PrimaNota.Ru, забирай!