PrimaNota.ru - самый крупный в мире бесплатный архив песенных текстов, аккордов, табулатур и нот


Black Label Society - Fire it up - текст песни, таба, бас-таба, видео

Регистрация Запомнить меня
Войти через:  Facebook Google Twitter Vk Yandex Mail.ru

Black Label Society - Fire it up - текст песни, таба, бас-таба, видео

Печатать
Просмотров: 556
Авторы музыки: Zakk Wylde
Авторы текста: Zakk Wylde
Tuning: low to high (D G C F A D)

Solo:
D|------------------15------------18b20-18-----------------------------|
A|----------------15-----18b20~------------18b20--18--15--18b20~-------|
F|-17b19~---17b19------------------------------------------------------|
C|---------------------------------------------------------------------|
G|---------------------------------------------------------------------|
D|---------------------------------------------------------------------|

D|------------------------------------------------------------------|
A|-15--18b20r18--18b20r18--18b20r18--18b20r18--18b20~---------------|
F|------------------------------------------------------------------|
C|------------------------------------------------------------------|
G|------------------------------------------------------------------|
D|------------------------------------------------------------------|

D|-20b22--20-18--------------18b20-------|
A|---------------20-18-20~---------------|
F|---------------------------------------|
C|---------------------------------------|
G|---------------------------------------|
D|---------------------------------------|

D|----------15--15h20p15--15h18p15--------------------|
A|----15-18------------------------15h18p15-----------|
F|-17----------------------------------------17~------|
C|----------------------------------------------------|
G|----------------------------------------------------|
D|----------------------------------------------------|

D|---------------15-----------------------------------------|
A|------------------15--18b20-----------18--------18--------|
F|--17b19--17b19---------------17-17b19----r17b19----r17b19-|
C|----------------------------------------------------------|
G|----------------------------------------------------------|
D|----------------------------------------------------------|

D|--------------------------------------|
A|--------18b20-------------------------|
F|--17b19-------17b19-15~---------------|
C|--------------------------------------|
G|--------------------------------------|
D|--------------------------------------|

D|-------------------------------------15--18-20--------|
A|-------------------------18----15-18---18-------------|
F|-------15----17----15-17----17------------------------|
C|-15h17----17----17------------------------------------|
G|------------------------------------------------------|
D|------------------------------------------------------|

D|-18h20p18--15h18p15----18----15--------------|
A|--------------------18----18----18-15-18~----|
F|---------------------------------------------|
C|---------------------------------------------|
G|---------------------------------------------|
D|---------------------------------------------|

D|--18b20-------------------18b20-------------------------------|
A|---------20b22-20-18-20----------20b22--20--18------20b22~----|
F|------------------------------------------------19------------|
C|--------------------------------------------------------------|
G|--------------------------------------------------------------|
D|--------------------------------------------------------------|

D|--20b22r20--20b22r20--20b22r20--20b22r20--20b22r20~---------------|
A|------------------------------------------------------------------|
F|------------------------------------------------------------------|
C|------------------------------------------------------------------|
G|------------------------------------------------------------------|
D|------------------------------------------------------------------|

D|--20b22r20----------------------|
A|------------20-18-20~-----------|
F|--------------------------------|
C|--------------------------------|
G|--------------------------------|
D|--------------------------------|
Добавлено: 28.04.2012
Другие материалы по этой песне:

Страница создана 23.02.2012
http://primanota.ru/black-label-society/fire-it-up-chords.htm
Привет, Гость.
Предлагаем пройти революционный курс по гитаре.
Подарок от PrimaNota.Ru, забирай!