PrimaNota.ru - самый крупный в мире бесплатный архив песенных текстов, аккордов, табулатур и нот


Black Label Society - Crazy Horse - таба, видео

Регистрация Запомнить меня
Войти через:  Facebook Google Twitter Vk Yandex Mail.ru

Black Label Society - Crazy Horse - таба, видео

Печатать
Просмотров: 219
Авторы музыки: Zakk Wylde
Авторы текста: Zakk Wylde
I dont know the solo.

Real Tunning-drop A (A,e,a,d,f#,b)

TUNNING FOR THIS TAB-standard (e,a,d,g,b,e)

just adjust the verse riff to the low a for playing it in drop a

NOTE--------
You can still play the song in standard even though its in drop a because you use the 
string a instead of having the low drop a, A string.
Playing it in standard tunning is easier so that i dont have to drop tune anything!!!

Verse
e---------------------------------|-----------------------------------------|
b---------------------------------|-----------------------------------------|
g---------------------------------|-----------------------------------------|
d---------------------------------|---------------------7-5-----------------|
a-3p0-0-0-0-0-3p0-0-0-0-0-3-5-6-7-|-3p0-0-0-0-0-3p0-0-0------7-6-5--3-------|
E---------------------------------|-----------------------------------------|

Pre-chorus
-----------------------------------|
-----------------------------------|
-----------------------------------|
---------------------7-7-----------|
---------------------7-7-----------|
--03h5-03h5-03h5-000-5-5-----------|

Chorus (Chords)
------------------------------------|
------------------------------------|
---2---5----7--7-B(1/2)----5---2----|
---2---5----7--7-B(1/2)----5---2----|
---0---3----5--5-B(1/2)----3---0----|
------------------------------------|

Chorus (w/ P.H.)
------------------------------------|
------------------------------------|
---2---5----7--------------5---2----|
---2---5----7--------------5---2----|
---0---3----5--------------3---0----|
-----------------10B(1/2)-----------|
                  P.H.

Bridge
------------------------------------|
------------------------------------|
--------9--------------9------------|
------9------------9----------------|
---7------------8-------------------|
------------------------------------|

Solo-IDK but his solos sound lot different. Sound like pentatonic minor with aeolian or 
minor arrpegios. What eve.

Order of the Black-BLS *out August*
Добавлено: 27.07.2013
Другие материалы по этой песне:

Страница создана 27.07.2013
http://primanota.ru/black-label-society/crazy-horse-chords.htm
Привет, Гость.
Предлагаем пройти революционный курс по гитаре.
Подарок от PrimaNota.Ru, забирай!