PrimaNota.ru - самый крупный в мире бесплатный архив песенных текстов, аккордов, табулатур и нот


Black Keys - Year In Review - аккорды и текст, бас-таба, видео

Регистрация Запомнить меня
Войти через:  Facebook Google Twitter Vk Yandex Mail.ru

Black Keys - Year In Review - аккорды и текст, бас-таба, видео

Печатать
Просмотров: 243
Новый альбом группы 'Черный Кузнец' по культовому сериалу 'Сверхъестественное'!
Авторы: Patrick Carney, Brian Burton, Dan Auerbach

Year In Review
Black Keys
Intro: 
Am
Am  Em   Dm   F G
  
Verse 1:
Am
Why you always wanna love the ones who hurt you?
Em
Then break down when they go and desert you
Dm
No, oh no
        F               G
It's so hard to let 'em go
Am
And watch 'em scatter when you start asking questions
Em
Like why we always in the wrong direction?
Dm
Shame, such a shame
           F        G
But you're doing it again
  
Chorus:
Am
You don't wanna know more
                Em
And you've been down this road before
            Dm
So leave it alone
              F
Just leave it alone
G        Am
Ohh...   Ohh...
Am  Em  Dm  F G
Ahhh....Oooh...
  
Verse 2:
And when you hear about the lies other people are saying
Just know they talk cause they don't have a way inside
Oh they try
Look how it hurts their pride
You can never find a soul that's got no pain within
Just like you'll never find a singer without that sin, no sin
Will it ever end?
  
Chorus:
You don't wanna know more
And you've been down this road before
So leave it alone
Just leave it alone
No this ain't nothing new
The only thing you've got is you
So leave it alone
Just leave it alone
  
Outro solo:
E|------------------------------------|--
B|----------------------10\8----------|--
G|------------7---------------9\7-\5--|--
D|--7--10--7-----7--10----------------|--
A|------------------------------------|-- x2
E|------------------------------------|--
  
E|---------------------------------------|--------------------------------|--
B|------------------------10\8-----------|--------------------------------|--
G|------------7-----7/10--------9\7-\5---|--7~--7-h-9-p-7~-------7--------|--
D|--7--10--7-----7-----------------------|---------------------7---10--7--|--
A|---------------------------------------|--------------------------------|--
E|---------------------------------------|--------------------------------|--
  
Am  Em  Dm  F G
Ahhh....Oooh...
  
Am
  
  
  
  
*Please rate and leave comments/corrections if needed*
Добавлено: 15.07.2014
Другие материалы по этой песне:
  • Аккорды и текст

Страница создана 15.07.2014
http://primanota.ru/black-keys/year-in-review-chords.htm
Привет, Гость.
Предлагаем пройти революционный курс по гитаре.
Подарок от PrimaNota.Ru, забирай!