PrimaNota.ru - самый крупный в мире бесплатный архив песенных текстов, аккордов, табулатур и нот


Black Keys - Howlin For You Live - таба, видео

Регистрация Запомнить меня
Войти через:  Facebook Google Twitter Vk Yandex Mail.ru

Black Keys - Howlin For You Live - таба, видео

Печатать
Просмотров: 154
-----------------------------------------------------------------
         Howlin' For You  Live Solo - The Black Keys
-----------------------------------------------------------------

Tabbed By : Aeonoptic
e-mail: aeonoptic@gmail.com

Tuning: EADGBe

This is the solo from the 'Brothers' Bonus CD (Akron Sessions)
 Very fuzzy tone

E|----------|------|------|-------|-----------------------------------------|
B|----------|------|------|-------|-----------------------------------------|
G|----------|------|------|-------|--------------------------------------14b|
D|----------|------|12~~~~|-14~~~~|------12-------12-------12-14-12-14~~----|
A|12br14~~~~|14~~~~|------|-------|12h14----12h14----12h14------------------|
E|----------|------|------|-------|-----------------------------------------|

E|--------------------------------------------|15b16-12------------|
B|--------------------------------------------|---------15-12------|
G|---12-14-14b16-14-----14-------------12-----|---------------14b16|
D|14-----------------14----14-12-12h14----14~~|--------------------|
A|--------------------------------------------|--------------------|
E|--------------------------------------------|--------------------|

E|15b16-12-------------------|15b16-12----------------12----15-12----12-15----12-15|
B|---------15-12-------------|---------15-12-------12----15-------15-------15------|
G|---------------14b15-12----|---------------14b16---------------------------------|
D|------------------------14~|-----------------------------------------------------|
A|---------------------------|-----------------------------------------------------|
E|---------------------------|-----------------------------------------------------|

E|15b17-12----15-12~-----------12-------------|----------------------------------------|
B|---------15---------15-12-15----15-12-------|------------15~-----15~-----15~----15~~~|
G|--------------------------------------14-12b|14-12-14/16-----16~-----16~-----16------|
D|--------------------------------------------|----------------------------------------|
A|--------------------------------------------|----------------------------------------|
E|--------------------------------------------|----------------------------------------|




| /  slide up
| \  slide down
| h  hammer-on
| p  pull-off
| ~  vibrato
| +  harmonic
| x  Mute note
Добавлено: 25.08.2015
Вам также может быть интересно:
Другие материалы по этой песне:
  • Аккорды и текст

Страница создана 25.08.2015
http://primanota.ru/black-keys/howlin-for-you-live-chords.htm
Привет, Гость.
Предлагаем пройти революционный курс по гитаре.
Подарок от PrimaNota.Ru, забирай!