PrimaNota.ru - самый крупный в мире бесплатный архив песенных текстов, аккордов, табулатур и нот


Black Dahlia Murder - What A Horrible Night - таба, видео

Регистрация Запомнить меня
Войти через:  Facebook Google Twitter Vk Yandex Mail.ru

Black Dahlia Murder - What A Horrible Night - таба, видео

Печатать
Просмотров: 116
-------------------------------------------------------------------------------
                 What a Horrible Night - The Black Dahlia Murder
-------------------------------------------------------------------------------
Tabbed by:Greg M

Tuning:C Standard (C F Bb Eb G c)

 People have been going on my computer and accidentally closing the internet when this 
was in the works 3 times. Meaning I've lost this freaking tab 3 times. So this might be a 
sloppy.

Riff 1A
c|---------------------------------------------------------------------------|
G|-------------------O-------------------------------------------O-----------|
E|---------------------------------------------------------------------------|
B|-333-333----333-333--4---------6---------4---------------4-----------------|
F|-333-333----333-333O-4---------6---------4---------4---6-4-----O-----------|
C|-111-111----111-111--2-111-111-4-111-111-2-111-111-2-1-4-2-111-------------|
   ... ...    ... ...    ... ...   ... ...

Riff 1B
c|---------------------------------------------------------------------------|
G|---------------------------------------------------------------------------|
E|---------------------------------------------------------------------------|
B|-------------------3--------4--3-4-----------------------------------------|
F|---------5---------3--------4--3-4-----------------------------------------|
C|-444-444-5-444-444---444-444-----------------------------------------------|

Tremolo riff (all trem. picked, except the pulloffy walk down thing)
c|---------------------------------------------------------------------------|
G|---------------------------------------------------------------------------|
E|---------------------------------------------------------------------------|
B|---------------------------------------------------------------------------|
F|---------------------------------------------------------------------------|
C|-4-7-0-4-7-0-5-8-0-5-8-0-7-10-0-7-10-0-8p0-7p0-5p0-4p0-5p0-4p0-4-7-0-4-7-0-|

c|---------------------------------------------------------------------------|
G|---------------------------------------------------------------------------|
E|---------------------------------------------------------------------------|
B|---------------------------------------------------------------------------|
F|---------------------------------------------------------------------------|
C|-5-8-0-5-8-0-7-10-0-7-10-0-13-16-0-13-16-0---------------------------------|

My favorite part
c|---------------------------------------------------------------------------|
G|-6-times--6-times--4-times-----------------6-times-------------------------|
E|---------------------------------------------------------------------------|
B|-------------------11-7------12-7-11-7-----9-6-----------------------------|
F|-12-9-------11-8-----------------------------------------------------------|
C|---------------------------------------------------------------------------|

Second ending(counting might be off)
c|---------------------------------------------------------------------------|
G|--5-times------------------------------------------------------------------|
E|-----------------6-times---------------------------------------------------|
B|---------------------------------------------------------------------------|
F|---8-4------11-8--9-6------------------------------------------------------|
C|---------------------------------------------------------------------------|

c|---------------------------------------------------------------------------|
G|---------------------------------------------------------------------------|
E|---------------------------------------------------------------------------|
B|-12"-11"-9"-6"--------------------11"-9"-6"-7------------------------------|
F|---------------------------------------------------------------------------|
C|---------------000-000-000-000-000-----------222-222-222-222-222-----------|

c|---------------------------------------------------------------------------|
G|---------------------------------------------------------------------------|
E|---------------------------------2---2-3-2--5------------------------------|
B|-12"-11"-9"-6"-------------------0---0-1-0--3------------------------------|
F|---------------------------------0---0-1-0--3------------------------------|
C|--------------000-000-000-000-000------------------------------------------|

Solo: I haven't gotten it completely, but I'll b e sure to post the rest when I do.
c|---------------------------------------------------------------------------|
G|-10-14-10----10--10-------10-14-10--10--10---------------------------------|
E|----------13---13--13-11~---------13--13--13-11~---------------------------|
B|------------------------------------------------11-12-11~-11-12-11~-/14~-12|
F|---------------------------------------------------------------------------|
C|---------------------------------------------------------------------------|

 This is the part I don't know, but he does this.

c|---------10------------10------------10--10-13-----------------------------|
G|----10-14--14-10--10-14--14-10--10-14--14----------------------------------|
E|--11------------11------------11-------------------------------------------|
B|---------------------------------------------------------------------------|
F|---------------------------------------------------------------------------|
C|---------------------------------------------------------------------------|

And now I'm really hungry but it's all on one scale and in the same phrase of it. So you 
do some figurin yourself.

| "  tremolo pick
| /  slide up
| \  slide down
| h  hammer-on
| p  pull-off
| ~  vibrato
| +  harmonic
| x  Mute note
===============================================================================
Добавлено: 26.04.2012
Другие материалы по этой песне:
  • Аккорды и текст

Страница создана 26.04.2012
http://primanota.ru/black-dahlia-murder/what-a-horrible-night-chords.htm
Привет, Гость.
Предлагаем пройти революционный курс по гитаре.
Подарок от PrimaNota.Ru, забирай!