PrimaNota.ru - самый крупный в мире бесплатный архив песенных текстов, аккордов, табулатур и нот


Black Dahlia Murder - Built For Sin - таба, видео

Регистрация Запомнить меня
Войти через:  Facebook Google Twitter Vk Yandex Mail.ru

Black Dahlia Murder - Built For Sin - таба, видео

Печатать
Просмотров: 79
Im not done the whole thing cause i havent really sat down to finish it, but heres about
of it. As of now i only have some of the lead guitar but since no one has anything good
built for sin i will post this to help others and i will finish it sometime soon for you 
lovers. And yes i know its half-assed. Ill put in all the hammers, pulls, muffs,
on, later.

tuning (C F Bb Eb G C) sounds beautiful on ESPs

|---------------------------------------------------------|
|---------------------------------------------------------|
|---------------------------------------------------------|
|---------------------------------------------------------|
|-------------------------------------------------1---4---|
|-2-0-0-0-0-0-0-3-0-0-0-0-0-0-2-0-0-0-0-0-0-0-0-0---5---2-|

|-----------------------------------------------------|
|-----------------------------------------------------|
|-----------------------------------------------------|
|-----------------------------------------------------|
|-----------------------------------------------5-3---|
|-0-0-0-0-0-0-3-0-0-0-0-0-0-2-0-0-0-0-0-0-0-0-0-----2-|

|-------------------------------------------------------------|
|-----------------------------------------------3-----5-------|
|-------------------------------------------------4-----4-3---|
|---------------------------------------------------6-------4-|
|-------------------------------------------------------------|
|-0-0-0-0-0-0-3-0-0-0-0-0-0-2-0-0-0-0-0-0-0-0-0---------------|

|-------------------------------------------------------|
|-------------------------------------------------------|
|-------------------------------------------------------|
|-------------------------------------------------3-----|
|-----------------------------------------------7---6-3-|
|-0-0-0-0-0-0-3-0-0-0-0-0-0-2-0-0-0-0-0-0-0-0-0---------|

|-------------------------------------------------------------------------|
|-------------------------------------------------------------------------|
|-------------------------------------------------------------------------|
|-------------------------------------------------------------------------|
|-0-0-0-0-2-2-2-2-3-3-3-3-----------------3-3-3-3-----------------6-6-6-6-|
|-------------------------5-5-5-5-7-7-7-7---------5-5-5-5-8-8-8-8---------|

|-------------------------------|
|-------------------------------|
|-------------------------------|
|-------------------------------|
|-----------------2-----5-------|
|-5-5-5-5-7-7-7-7---1-0---8-1-0-|
Добавлено: 27.11.2013
Другие материалы по этой песне:
  • Аккорды и текст

Страница создана 22.06.2013
http://primanota.ru/black-dahlia-murder/built-for-sin-chords.htm
Привет, Гость.
Предлагаем пройти революционный курс по гитаре.
Подарок от PrimaNota.Ru, забирай!