PrimaNota.ru - самый крупный в мире бесплатный архив песенных текстов, аккордов, табулатур и нот


Black Dahlia Murder - Goat Of Departure - таба, видео

Регистрация Запомнить меня
Войти через:  Facebook Google Twitter Vk Yandex Mail.ru

Black Dahlia Murder - Goat Of Departure - таба, видео

Печатать
Просмотров: 134
-------------------------------------------------------------------------------
                             SONG NAME - Band Name
-------------------------------------------------------------------------------
Tabbed by:HTTK2013
E-mail:

HOPE YOU GUYS ENJOY MY TAB OF THIS SONG. MY FAVORITE OFF THEIR NEW ALBUM.
GIVE ME A RATE OR COMMENT IF YOU COULD!

Tuning:C F A# D# G C

e|---------------------------------------------------------------------------|
B|---------------------------------------------------------------------------|
G|---------------------------------------------------------------------------|
D|-3-------------3-2-3-------------------------------------------------------|
A|---------------------2----------4-3-4-----------------4-3-2-3---2----------|
E|----1111111111---------11111111-------3--333333333333---------4---4-3------|
PM:   ..........         ........          ............ . . . . . . . .
e|---------------------------------------------------------------------------|
B|---------------------------------------------------------------------------|
G|---------------------------------------------------------------------------|
D|-3------------3-2-3-6---------6-8-6----------------------------5-----------|
A|------------------------------------7--------------4-3-4-3-2-3---3---------|
E|---1111111111---------11111111--------333333333333-------------------------|
PM:  ..........         ........        ............ . . . . . . . .
e|---------------------------------------------------------------------------|
B|---------------------------------------------------------------------------|
G|---------------------------------------------------------------------------|
D|-3-------------3-2-3-------------------------------------------------------|
A|---------------------2----------4-3-4-----------------4-3-2-3---2----------|
E|----1111111111---------11111111-------3--333333333333---------4---4-3------|
PM:   ..........         ........          ............ . . . . . . . .

e|---------------------------------------------------------------------------|
B|---------------------------------------------------------------------------|
G|---------------------------------------------------------------------------|
D|----------------------6----------------------------------------------------|
A|--------------5~~~--4-4-5---------------5---4--2-3-2-----------------------|
E|-222222222222-3~~~--2---3--222222222222-3---2--------4-3-------------------|
PM:............       .      ............ 
e|---------------------------------------------------------------------------|
B|---------------------------------------------------------------------------|
G|---------------------4-----------------------------------------------------|
D|---------------------2-----------------------------------------------------|
A|--------------5----4-2-5----------------2----5-4-3-4-2-3-------------------|
E|-222222222222-3----2---3--222222222222--0----3-2-1-4-2-3-------------------|
PM:............             ............       . . . . . .
e|---------------------------------------------------------------------------|
B|---------------------------------------------------------------------------|
G|---------------------------------------------------------------------------|   CHORUS
D|-3-------------------------------------------------------------------------|
A|----------------3-----4-------3-------------4-----1------------------------|
E|---1-1-111-1-1----1-1---111-1---0-0-000-0-0---0-0---000-0------------------|
                                                                               X2
e|---------------------------------------------------------------------------|
B|---------------------------------------------------------------------------|
G|---------------------------------------------------------------------------|
D|---------------------------------------------------------------------------|   CHORUS CONTINUED
A|-4-------------3-------7-------------7-----3-------------------------------|
E|---6-6-666-6-6---666-6---3-3-333-3-3---3-3---000-0-------------------------|


e|---------------------------------------------------------------------------|
B|---------------------------------------------------------------------------|
G|---------------------------------------------------------------------------|
D|3-----------3-2-3----------------------------------------------------------|
A|------------------2----------4-3-4----------------4-3-2-3---2--------------|
E|--1111111111--------11111111-------3-333333333333---------4---4-3----------|
PM: ..........        ........         ............ . . . . . . . . 
e|---------------------------------------------------------------------------|
B|---------------------------------------------------------------------------|
G|---------------------------------------------------------------------------|
D|-3-----------3-2-3-6----------6-8-6----------------------------5-----------|
A|------------------------------------7--------------4-3-4-3-2-3---3---------|
E|--1111111111---------11111111---------333333333333-------------------------|
PM: ..........         ........         ............ . . . . . . . .
e|---------------------------------------------------------------------------|
B|---------------------------------------------------------------------------|
G|---------------------------------------------------------------------------|
D|-3------------3-2-3--------------------------------------------------------|
A|--------------------2----------4-3-4---------------------------------------|
E|---1111111111---------11111111-------3-333333333333------------------------|
PM:  ..........         ........         ............
e|-----------------------------------------------------------------------------------|
B|-------------------------------------------------9-6-9-6---------------------------|
G|-----------------------------------------5-8-5-8---------8-5-8-5-------------------|
D|---------------------------------4-7-4-7-------------------------5-8-5--5----------|
A|-4-3-2-3---2-------------3-6-3-6--------------------------------------7---7-4------|
E|---------4---4-3-2-5-2-5------------------------------------------------------6----|

CHORUS X2

e|---------------------------------------------------------------------------|
B|---------------------------------------------------------------------------|
G|---------------------------------------------------------------------------|
D|-2-------------------------------------------------------------------------|
A|-2---////////////////////////////////////----------------------------------|
E|-0---////////////////////////////////////----------------------------------|

e|---------------------------------------------------------------------------|
B|---------------------------------------------------------------------------|
G|---------------------------------------------------------------------------|
D|-565---------3-2-232-------------------------------------------------------|
A|-----4-4-4-4---------1-1-1-1-4-3-343-3-3-3-3-3-3-3-3-3-3-------4-----------|
E|-------------------------------------1-1-1-1-1-1-1-1-1-1-1-0-1-------------|
PM:    . . . .         . . . .         . . . . . . . . . . . . . 
e|---------------------------------------------------------------------------|
B|---------------------------------------------------------------------------|
G|---------------------------------------------------------------------------|
D|---------------------------------------------------------------------------|
A|-2---3-4------3-7---7-8-10-------------------------------------------------|
E|-0-00-0-0--000-0-0---------------------------------------------------------|

e|---------------------------------------------------------------------------|
B|---------------------------------------------------------------------------|
G|---------------5-----------------------------------------------------------|
D|3-3--5-5--8-8-----6-5--565---------8-6-686-----------5-565-----------------|
A|----------------3----------4-4-4-4-----------------8-----------------------|
E|-1-1--3-3--6-6-----------------------------6-6-6-6-------------------------|
PM:. .  . .  . .  .          . . . .         . . . .
e|---------------------------------------------------------------------------|
B|---------------------------------------------------------------------------|
G|---------------------------------------------------------------------------|
D|---------------------------------------------------------------------------|
A|-3-3-3-3-3-3-3-3-3-3-333-3-3-------------------7-777-7---------3-333-3-----|
E|-1-1-1-1-1-1-1-1-1-1-111-1-1-3-3-333-3-6-666-6---------6-666-6-------------|
PM:. . . . . . . . . . ... . . . . ... . . ... . . ... . . ... . . ... .
e|---------------------------------------------------------------------------|
B|---------------------------------------------------------------------------|
G|---------------------------------------------------------------------------|
D|---------------------------------------------------------------------------|
A|---------------------------------------------------------------------------|
E|-0-000-0--3-333-3-0-000-0--------------------------------------------------|
PM:. ... .  . ... . . ... .
e|---------------------------------------------------------------------------|
B|---------------------------------------------------------------------------|
G|---------------------------------------------------------------------------|
D|-3------------3-2-3--------------------------------------------------------|
A|--------------------2-----------4-3-4----------------4-3-2-3---2-----------|
E|---1111111111----------11111111-------3-333333333333---------4---4-3-------|
PM:  ..........          ........         ............ . . . . . . . .
e|---------------------------------------------------------------------------|\
B|---------------------------------------------------------------------------| \
G|---------------------------------------------------------------------------|  \
D|-3-----------3-2-3-6----------6-8-6----------------------------5-----------|  /   X2 (THIS PART ONLY
A|------------------------------------7--------------4-3-4-3-2-3---3---------| /
E|--1111111111---------11111111---------333333333333-------------------------|/
PM: ..........         ........         ............ . . . . . . . .
e|------------------------------|---|----|---|---|---|-----------------------|
B|------------------------------|---|----|---|---|---|-----------------------|
G|------------------------------|---|----|---|---|---|-----------------------|
D|------------------------------|-2-|----|-5-|---|-4-|-----------------------|X7   SOLO STARTS DURING THIS
A|-3333333---3333333---3333333--|-2-|----|-3-|---|-2-|-----------------------|
E|-1111111---1111111---1111111--|-0-|----|-3-|---|-2-|-----------------------|
PM:.......   .......   .......   1,3,5    2,4,6     7

SOLO - FAST, BUT I SPLIT IT APART SO IT IS EASIER TO READ.
e|---------------------------------------------------------------------------|
B|-11-11-8-9-11-9-8\7-9-8-7-8-7-6-----------8-11-----------------------------|
G|---------------------------------9--9\8-9----------------------------------|
D|---------------------------------------------------------------------------|
A|---------------------------------------------------------------------------|
E|---------------------------------------------------------------------------|
PM:                                     . . .
e|-------------------15\12----12---------------------------------------------|
B|-14-11----17\14----------14----14------------------------------------------|
G|-------12-------15----------------12---------------------------------------|
D|---------------------------------------------------------------------------|
A|---------------------------------------------------------------------------|
E|---------------------------------------------------------------------------|

e|-18-18-20-16----------16-20-16----16----------------------------------15---|
B|-------------18-17-18----------18----18-------------13-17-13----13-17------|
G|----------------------------------------17\15-12-16----------15------------|
D|---------------------------------------------------------------------------|
A|---------------------------------------------------------------------------|
E|---------------------------------------------------------------------------|

e|-16\15-13-12-16-15-13\12-15-12----12---------------------------------------|
B|-------------------------------13----13------------------------------------|
G|----------------------------------------12---------------------------------|
D|---------------------------------------------------------------------------|
A|---------------------------------------------------------------------------|
E|---------------------------------------------------------------------------|

e|-15---------------12\10-12---12-13-15-16-13-15-16--------------------------|
B|-------11-12-13-12---------------------------------------------------------|
G|---------------------------------------------------------------------------|
D|---------------------------------------------------------------------------|
A|---------------------------------------------------------------------------|
E|---------------------------------------------------------------------------|

e|-15-12----18\15----21\18----18------------16-16-16-16-16-16-16-16----------|
B|-------14-------17-------20----20----18------------------------------------|
G|----------------------------------18---------------------------------------|
D|---------------------------------------------------------------------------|
A|---------------------------------------------------------------------------|
E|---------------------------------------------------------------------------|

e|-15-15-15-15-13-13-13-13------------11-15-11H11---------15-14~~~~~~~-------|
B|-------------------------17--17--------------12-10-------------------------|
G|--------------------------------------------------10/12--------------------|
D|---------------------------------------------------------------------------|   END SOLO
A|---------------------------------------------------------------------------|
E|---------------------------------------------------------------------------|

e|---------------------------------------------------------------------------|
B|---------------------------------------------------------------------------|
G|---------------------------------------------------------------------------|
D|-----------------------6---------------------------------------------------|
A|-----------------5---4-4-5--------------5--4-2-3-2-------------------------|
E|-15\222222222222-3---2---3-222222222222-3--2-------4-3---------------------|\
PM:   ............           ............    .                                 \  X2
e|---------------------------------------------------------------------------|/
B|---------------------------------------------------------------------------|
G|--------------------4------------------------------------------------------|
D|--------------------2------------------------------------------------------|
A|--------------5---4-2-5--------------5----4-5-4-4--------------------------|
E|-222222222222-3---2---3-222222222222-3----2-3-2----------------------------|
PM:............     .     ............      . . .
e|---------------------------------------------------------------------------|
B|---------------------------------------------------------------------------|
G|---------------------------------------------------------------------------|
D|---------------------------------------------------------------------------|
A|--------------5----4-5-4-3-------------------------------------------------|
E|-222222222222-3----2-3-2-1-------------------------------------------------|
PM:............      . . . . 

e|-8---7---8---5---8---8-----------------------------------------------------|
B|-9---8---9---5---9---10----------------------------------------------------|
G|-10--9---10--5---10--9---3-------------------------------------------------|
D|-10--9---10--7---10--7---5-------------------------------------------------|
A|-8---7---8---7---8---7---3-------------------------------------------------|
E|-8---7---8---5---8-------0-------------------------------------------------|

e|---------------------------------------------------------------------------|
B|---------------------------------------------------------------------------|
G|-0-------------------------------------------------------------------------|
D|-2--------------------------6-5-565---------3-2-232------------------------|
A|-3-3-3-3-3-3-3-3-3-3-3-3-3----------4-4-4-4--------1-1-1-1-4-3-343---------|
E|-4-4-4-4-4-4-4-4-4-4-4-4-4-------------------------------------------------|
PM:  . . . . . . . . . . . .          . . . .        . . . . 
e|---------------------------------------------------------------------------|
B|---------------------------------------------------------------------------|
G|---------------------------------------------------------------------------|
D|---------------------------------------------------------------------------|
A|-3-3-3-3-3-3-3-3-3-3-------4--2-------3---4--------3---7---7-8-10----------|
E|-1-1-1-1-1-1-1-1-1-1-1-0-1----0---0-0---0---0-000----0---0-----------------|

e|---------------------------------------------------------------------------|
B|---------------------------------------------------------------------------|
G|---------------5-----------------------------------------------------------|
D|3-3--5-5--8-8-----6-5--565---------8-6-686-----------5-565-----------------|
A|----------------3----------4-4-4-4-----------------8-----------------------|
E|-1-1--3-3--6-6-----------------------------6-6-6-6-------------------------|
PM:. .  . .  . .  .          . . . .         . . . .

e|---------------------------------------------------------------------------|
B|---------------------------------------------------------------------------|
G|---------------------------------------------------------------------------|
D|---------------------------------------------------------------------------|
A|-3-3-3-3-3-3-3-3-3-3-333-3-3-------------------7-777-7---------3-333-3-----|
E|-1-1-1-1-1-1-1-1-1-1-111-1-1-3-3-333-3-6-666-6---------6-666-6-------------|
PM:. . . . . . . . . . ... . . . . ... . . ... . . ... . . ... . . ... .
e|---------------------------------------------------------------------------|
B|---------------------------------------------------------------------------|
G|---------------------------------------------------------------------------|
D|---------------------------------------------------------------------------|
A|---------------------------------------------------------------------------|
E|-0-000-0--3-333-3-0-000-0--------------------------------------------------|
PM:. ... .  . ... . . ... .

e|---------------------------------------------------------------------------|
B|---------------------------------------------------------------------------|
G|---------------------------------------------------------------------------|
D|-3-------------3-2-3-------------------------------------------------------|
A|---------------------2----------4-3-4-----------------4-3-2-3---2----------|
E|----1111111111---------11111111-------3--333333333333---------4---4-3------|
PM:   ..........         ........          ............ . . . . . . . .         X2
e|---------------------------------------------------------------------------|
B|---------------------------------------------------------------------------|
G|---------------------------------------------------------------------------|
D|-3------------3-2-3-6---------6-8-6----------------------------5-----------|
A|------------------------------------7--------------4-3-4-3-2-3---3---------|
E|---1111111111---------11111111--------333333333333-------------------------|
PM:  ..........         ........        ............ . . . . . . . .

e|---------------------------------------------------------------------------|
B|---------------------------------------------------------------------------|
G|---------------------------------------------------------------------------|
D|-3~~~~--------3~~~~--------------------------------------------------------|
A|-3~~~~--------3~~~~--------------------------------------------------------|
E|-1~~~~--------1~~~~--------------------------------------------------------|


************************************

| /   slide up
| \   slide down
| h   hammer-on
| p   pull-off
| ~   vibrato
| +   harmonic
| x   Mute note
| b   Bend
| pb  Pre-bend
| br  Bend release
| pbr Pre-bend release
| brb Bend release bend

************************************
Добавлено: 08.06.2015
Другие материалы по этой песне:

Страница создана 02.08.2013
http://primanota.ru/black-dahlia-murder/goat-of-departure-chords.htm
Привет, Гость.
Предлагаем пройти революционный курс по гитаре.
Подарок от PrimaNota.Ru, забирай!