PrimaNota.ru - самый крупный в мире бесплатный архив песенных текстов, аккордов, табулатур и нот


Black Dahlia Murder - Virally Yours - текст песни, таба, видео

Регистрация Запомнить меня
Войти через:  Facebook Google Twitter Vk Yandex Mail.ru

Black Dahlia Murder - Virally Yours - текст песни, таба, видео

Печатать
Просмотров: 118
tune 2 steps down

if any1 can figure out the part i couldnt then please send me it

DRUM FILL
0.00-0.14
F|-------------------------------------------------------------------------|
G|-------------------------------------------------------------------------|
Eb|------------------------------------------------------------------------|
Bb|---------------------------------------------------------------------x4-|
F|--5\4----------5--5/7\5---5\4-------------5--5\4-------------------------|
C|--3\2--0-0-0-0-3--3/5\3---3\2-0-0-0-0-----3--3\2-------------------------|

F|-------------------------------------------------------------------------|
G|-------------------------------------------------------------------------|
Eb|----------------11------------------------------------------------------|
Bb|----10-12-14--------14-12-10--------------------------------------------|
F|-------------------------------------------------------------------------|
C|-------------------------------------------------------------------------|

F|-------------------------------------------------------------------------|
G|-------------------------------------------------------------------------|
Eb|------------------------------------------------------------------------|
Bb|---------------------------------------------------------x5-firstx2pm---|
F|---5\4----------5--5/7\5---5\4-------------5--5\4------------------------|
C|---3\2--0-0-0-0-3--3/5\3---3\2-0-0-0-0-----3--3\2------------------------|
   pm|---------------------------------------------|
C|-------------------------------------------------------------------------|
G|-------------------------------------------------------------------------|
Eb|------------------------------------------------------------------------|
Bb|------------------------------------------------------------------------|
F|-------9-10-9-10-----8-9-8-9----9-10-9-10--------------------------------|
C|-----7------------6-----------7------------------------------------------|
       z z  z z  z  z



c|-------------------------------------------------------------------------|
G|-------------------------------------------------------------------------|
Eb|------------------------------------------------------------------------|
Bb|------------------------------------------------------------------------|
F|--5-5-5-5/8--4-----------------------------------------------------------|
C|--3-3-3-3/6--2-----------------------------------------------------------|

VERES AGAIN then a bunch of stuff then the solo

c|-----6-7-6-------------------------------6-7/14-14-14-14--15-14-12-------|
G|-----------8-7---------------------6-7-8---------------------------------|
Eb|--------------7-6-----------6-7-8---------------------------------------|
Bb|------------------7---6-7-8---------------------------------------------|
F|-------------------------------------------------------------------------|
C|-------------------------------------------------------------------------|
                    ph

c|--13-12-10---------------------------------------------------------------|
G|------------6------------------------------------------------------------|
Eb|---------------14b------------------------------------------------------|
Bb|------------------------------------------------------------------------|
F|-------------------------------------------------------------------------|
C|-------------------------------------------------------------------------|
verse again then i think the next part goes like this
c|-------------------------------------------------------------------------|
G|-------------------------------------------------------------------------|
Eb|------------------------------------------------------------------------|
Bb|------------------------------------------------------------------------|
F|---7-----7-----7-----8-10-11---11-------11-------11------12-14-15-14-----|
C|-----8-8---8-8---8-8-------------12-12----12-12----12-12------------15-15|

c|-------------------------------------------------------------------------|
G|-------------------------------------------------------------------------|
Eb|------------------------------------------------------------------------|
Bb|----------------------------------------------------------------------|X4
F|--14-------14--------15-16-15-14-14-15-14-12-----------------------------|
C|-----15-15----15-15------------------------------------------------------|

then another part that i dont feel like figureing out

|b bend
  /  slide up
| \  slide down
| h  hammer-on
| p  pull-off
| ~  vibrato
| +  harmonic
|pm  Mute note
|trem pick z
Добавлено: 08.03.2012
Другие материалы по этой песне:

Страница создана 08.03.2012
http://primanota.ru/black-dahlia-murder/virally-yours-chords.htm
Привет, Гость.
Предлагаем пройти революционный курс по гитаре.
Подарок от PrimaNota.Ru, забирай!