PrimaNota.ru - самый крупный в мире бесплатный архив песенных текстов, аккордов, табулатур и нот


Black Dahlia Murder - Warborn - текст песни, таба, бас-таба, видео

Регистрация Запомнить меня
Войти через:  Facebook Google Twitter Vk Yandex Mail.ru

Black Dahlia Murder - Warborn - текст песни, таба, бас-таба, видео

Печатать
Просмотров: 172
warborn

tabbed by shane peterson
sick song.  the rhythms pretty easy but thats really all i got.
i didnt get the backing rhythms or any of the solos cuz im really not great at soloing yet
and i left out the last 2 riffs.  sorry.  hope what i got is right though.
keep it metal.
c------|
G------|
A#-----|
E#-----|
F------|
E#-----|

gtr 1+2
-------------------------------------------|
-------------------------------------------|
-2--------2--------2-----------------------|
-0--------0--------0-----------------------|
-0--------0--------0--------6-444-44-------|
---000-00---000-00---000-00-6--------------|

gtr 1+2
-------------------------------------------|
-------------------------------------------|
-------------------------------------------|
-----------------8-------------------------|
-5---3---5---7-----8-----11-11-11-11-11-11-|
-5-5-5-5-5-5-7-8~----8-0-11-11-11-11-11-11-|

alternate pick these sections
gtr 1
-------------------------------------------|
-------------------------------------------|
-------------------------------------------|
-7--5-7--5---5-8--7--5-7-------------------|
-----------8--------------8-5--------------|
-------------------------------------------|


-------------------------------------------|
-------------------------------------------|
-------------------------------------------|
-------------------------------------------|
-4--7--5--8-------5--4---------------------|
------------5--8---------------------------|

gtr 2
-------------------------------------------|
-------------------------------------------|
-------------------------------------------|
------------------------7--5-----5--7-8----|
---------------------7--------8---------7--|
-7---8--5--7---8--5------------------------|
Добавлено: 11.06.2012
Другие материалы по этой песне:

Страница создана 24.03.2012
http://primanota.ru/black-dahlia-murder/warborn-chords.htm
Привет, Гость.
Предлагаем пройти революционный курс по гитаре.
Подарок от PrimaNota.Ru, забирай!