PrimaNota.ru - самый крупный в мире бесплатный архив песенных текстов, аккордов, табулатур и нот


Billy Talent - Worker Bees - аккорды и текст, таба, бас-таба, видео

Регистрация Запомнить меня
Войти через:  Facebook Google Twitter Vk Yandex Mail.ru

Billy Talent - Worker Bees - аккорды и текст, таба, бас-таба, видео

Печатать
Просмотров: 585
Уроки эстрадного вокала в Санкт-Петербурге
Worker Bees
Billy Talent
Billy Talent
Worker Bees
Billy Talent II
2006 Atlantic records
Submitted by: paramore_fans@yahoo.com

Key: Eb

Tuning: Standard EADGBe

Chords used:
Cm -    x35543
Cm -   x6558x
Fm/D - x5606x
Fm -    133111 or x-8-10-10-x-x-
Eb/G -  365xxx or x-10-13-12-x-x-
G# -    466544 or x-11-13-13-x-x-
G -     320033
G7/B -  x2x003
Eb -    x68886
Bb -    x13331
Gm -    355333
Bb/D -  x587xx


Intro:

Bass: Cm (all The Way)

Guitar: 
Cm--Cm--Fm/D-Cm-Fm--G#-G7/B--Cm-Cm-Fm/D-


Breakdown: While continuing the bass Riff
Cm   Cm  Fm/D Cm  Fm
March on  wor--ker  bees!
Ab   G7/B Cm Cm Fm/D 
Know your e--ne--my!


Verse 1:
Eb            Cm
  We take our orders 
      Fm/D Eb Fm
given by   the queen
Ab             G7/B
  Were not the killers 
         Cm Eb  Fm/D
were the worker bees
Eb         Cm
  If you resist us you 
     Fm/D Eb   Fm
will feel our sting
Ab          G7/B
  Surrender now before 
    Cm    Eb  Fm/D
the swarm sets in


Refrain:
Fm-Eb-Dm-Ab-G
             Protect the hive from enemies!
Fm-Eb-Dm-Ab-G
             Protect the hive from enemies!
Fm-Eb-Dm-Ab-G
             Follow the herd mentality!
       Cm       Bb       Ab
Can we fight to save our souls?


Interlude:
Cm--Cm--Fm/D-Cm-Fm--G#-G7/B--Cm-Cm-Fm/D-


Breakdown:
Cm   Cm  Fm/D Cm  Fm
March on  wor--ker  bees!
Ab   G7/B Cm Cm Fm/D 
Know your e--ne--my!


Verse 2:
Eb       Cm            Fm/D Eb Fm
  A pollination coming from the west
Ab         G7/B            Cm   Eb  Fm/D
  And in a flash we will invade your nest
Eb           Cm            Fm/D Eb  Fm
   Supply of honey flowing bot--tom-less
Ab            G7/B               Cm Eb Fm/D
  Play by our rules or you'll be po-werless


(Repeat Refrain)


Chorus 1:
          Eb    Bb/D Eb
And we'll march a----long
         Ab
with our blindfolds on
         Eb   Bb/D Eb
And well ride the  rails
         Cm
with our pistols drawn
        Gm
Can the Lord above
        Ab
forgive what weve done?
       Cm       Bb       Ab
Can we fight to save our souls?


Chorus 2:
          Eb    Bb/D Eb
And we'll march a----long
         Ab
with our blindfolds on
         Eb   Bb/D Eb
And well ride the  rails
         Cm
with our pistols drawn
        Gm
Can the Lord above
        Ab
forgive what weve done?
       Cm       Bb       Ab
Can we fight to save our souls?
       Cm       Bb       Ab
Can we fight to save our souls?


Guitar Solo:

Ian: b means bend
                                   Cm   
e|-----------------------------------------------------------------------
B|-8-8-8-8-8-8-8-8-4-4-4-4-4-4-4-4-6-6-6-6-8-8-8-8-8-9-9-9-9-9-9-9-9-9-9-
G|-----------------------------------------------------------------------
D|-----------------------------------------------------------------------
A|-----------------------------------------------------------------------
E|-----------------------------------------------------------------------

                 Ab                                    Bb
e|-----------------8-8-8-8-8-8-8-8-|-6-6-6-6-6-6-6-6-8-8-8-8-10-10-10-10-
B|-9-9-9-9-9-9-9-9-----------------|-------------------------------------
G|---------------------------------|-------------------------------------
D|---------------------------------|-------------------------------------
A|---------------------------------|-------------------------------------
E|---------------------------------|-------------------------------------

              Eb                    Cm   
e|-11-11-11-11-11-11-11-11-|-8-8-8-8-8-8-8-8-
B|-------------------------|-----------------
G|-------------------------|-----------------
D|-------------------------|-----------------
A|-------------------------|-----------------
E|-------------------------|-----------------

       Bb/D           Eb                 Fm
e|-10-10-10-10-|-11-11-11-11-|-13-13-13-13-13-13-13-13-
B|-------------|-------------|-------------------------
G|-------------|-------------|-------------------------
D|-------------|-------------|-------------------------
A|-------------|-------------|-------------------------
E|-------------|-------------|-------------------------

        Eb            Fm                  Gm              G
e|-11-11-11-11-|-13-13-13-13-|-15-15-15-15-15-15-15-15-|-15b-
B|-------------|-------------|-------------------------|-----
G|-------------|-------------|-------------------------|-----
D|-------------|-------------|-------------------------|-----
A|-------------|-------------|-------------------------|-----
E|-------------|-------------|-------------------------|-----


(Repeat Chorus 1)


Chorus 3:
          Eb    Bb/D Eb
And we'll march a----long
         Ab
with our blindfolds on
         Eb   Bb/D Eb
And well ride the  rails
         Cm
with our pistols drawn
        Gm
Can the Lord above
        Ab
forgive what weve done?
       Cm       Bb       Ab
Can we fight to save our souls?
       Cm       Bb       Ab
Can we fight to save our souls?
        Cm     Bb       Ab
Will we die to save our home?
Добавлено: 14.05.2012
Другие материалы по этой песне:

Страница создана 25.02.2012
http://primanota.ru/billy-talent/worker-bees-chords.htm
Привет, Гость.
Предлагаем пройти революционный курс по гитаре.
Подарок от PrimaNota.Ru, забирай!