PrimaNota.ru - самый крупный в мире бесплатный архив песенных текстов, аккордов, табулатур и нот


Billy Talent - Billy Talent Ii (album) - таба, бас-таба, видео

Регистрация Запомнить меня
Войти через:  Facebook Google Twitter Vk Yandex Mail.ru

Billy Talent - Billy Talent Ii (album) - таба, бас-таба, видео

Печатать
Просмотров: 286
------------------------------------------------------------------------------
                          BILLY TALENT - BILLY TALENT 2
------------------------------------------------------------------------------

Hello and welcome to the Billy Talent 2 complete album guitar tab...I would like to thank:

Shoe box_of_lies for "Devil in a Midnight mass" and "Worker bees" and "The navy song",
Mark Monachino for "Red Flag" and "This suffering" and "Sympathy" and "Burn the Evidence",
Brendan for "Pins and Needles" and "Fallen Leaves",
George92 for "Where is The Line?"
A_GOOD_TABBER (Me) and parts from Shoebox_of_Lies for "Covered in cowardice"
Devin Taylor for "surrender"
Zuka for "Perfect World"

All great tabs and tabbers, please don't give crap about me stealing your tabs cause I 
mentioned you all. I have also edited parts on "Devil In a Midnight Mass", "Red Flag", "This 
"Worker Bees", the solo on "Fallen Leaves", "Covered In Cowardice", and strumming patterns on "Surrender".

Track listing

"Devil In A Midnight Mass" – 2:52
"Red Flag" – 3:16
"This Suffering" – 3:56
"Worker Bees" – 3:44
"Pins & Needles" – 3:11
"Fallen Leaves" – 3:19
"Where Is The Line?" – 3:49
"Covered In Cowardice" – 4:12
"Surrender" – 4:06
"The Navy Song"– 4:31
"Perfect World" – 3:06
"Sympathy" – 3:18
"Burn The Evidence" – 3:40

All songs are in drop D tunning (DADGBe)
------------------------------------------------------------------------------
			     Devil In A Midnight Mass
------------------------------------------------------------------------------
Tabbed by: Barry Miles
Email: shoebox_of_lies@hotmail.com
Gtr I (D A D G B E) - 'Ian D'Sa' (With Compressor)
Tempo 180, 4/4 timing

INTRO
(Volume low)
|-------|-----------------|-----------------|-----------------|-----|
|-------|-----------------|-----------------|-----------------|-----|
|-------|-----------------|-----------------|-----------------|-----|
|-------|-----------------|-----------------|-----------------|-----|
|-------|-5-----------8---|-7---------------|-5-----------8---|-7---|
|-5-7-8-|---0-8-0-7-0---0-|---0-7-3-0-5-7-8-|---0-8-0-7-0---0-|---0-|

(Volume high)                                      x4
|-------------||------------------|------------------||
|-------------||o-----------------|-----------------o||
|-------------||------------------|------------------||
|-------------||------------------|------------------||
|-------------||o-5-----------8---|-7---------------o||
|-7-3-0-5-7-8-||----0-8-0-7-0---0-|---0-7-3-0-5-7-8--||

VERSE
                     1.,2.,3.             4.
||------------------|-------------------||-----------------|
||o-----------------|------------------o||-----------------|
||------------------|-------------------||-----------------|
||------------------|-------------------||-----------------|
||o-0---------------|------------------o||--------------3--|
||--0---------------|------7-3-0-5-7-8--||----7-3-0-5-7----|

PRECHORUS
(Clean with slight Overdrive)     (Distortion with compressor)            x2
||-1--------------|-0-----------------|-------------------|-----------------||
||-3--------------|-2-----------------|-------------------|----------------o||
||-0--------------|-0-----------------|-------------------|-----------------||
||-3--------------|-2-----------------|-------------------|-----------------||
||-1--------------|-0-----------------|-------------8---7-|-------------3--o||
||----------------|-----------------0-|-----8-0-7-0---0---|-0-7-3-0-5-7-----||

(Clean with slight Overdrive)
|-1--------|-0--------|-1--------|-5--------|
|-3--------|-2--------|-3--------|-5--------|
|-0--------|-0--------|-2--------|-5--------|
|-3--------|-2--------|-0--------|-3--------|
|-1--------|-0--------|-0--------|-3--------|
|----------|----------|-0--------|-3--------|

                          (Distortion with compressor)
|-1--------|-0--------|-----------------|
|-3--------|-2--------|-----------------|
|-0--------|-0--------|-----------------|
|-3--------|-2--------|-----------------|
|-1--------|-0--------|-----------------|
|----------|----------|-----7-3-0-5-7-8-|
CHORUS
|-1---1-1---1-1---|-1-1---1-1---1---|-5--5-5---5-5---|-5-5---5-5---5--|
|-3---3-3---3-3---|-3-3---3-3---3---|-5--5-5---5-5---|-5-5---5-5---5--|
|-2---2-2---2-2---|-2-2---2-2---2---|-5--5-5---5-5---|-5-5---5-5---5--|
|-0---0-0---0-0---|-0-0---0-0---0---|-3--3-3---3-3---|-3-3---3-3---3--|
|-0---0-0---0-0---|-0-0---0-0---0---|-3--3-3---3-3---|-3-3---3-3---3--|
|-0---0-0---0-0---|-0-0---0-0---0---|-3--3-3---3-3---|-3-3---3-3---3--|

|-6--6-6---6-6---|-6-6---6-6---6-|----------------------|-----------------|
|-8--8-8---8-8---|-8-8---8-8---8-|-11--11-11---11-11-11-|-----------------|
|-7--7-7---7-7---|-7-7---7-7---7-|-10--10-10---10-10-10-|-9---------------|
|-5--5-5---5-5---|-5-5---5-5---5-|--8---8--8----8--8--8-|-7---------------|
|-5--5-5---5-5---|-5-5---5-5---5-|--8---8--8----8--8--8-|-7---------------|
|-5--5-5---5-5---|-5-5---5-5---5-|--8---8--8----8--8--8-|-7--7-3-0-5-7-8--|

|-1---1-1---1-1---|-1-1---1-1---1---|-5--5-5---5-5---|-5-5---5-5---5--|
|-3---3-3---3-3---|-3-3---3-3---3---|-5--5-5---5-5---|-5-5---5-5---5--|
|-2---2-2---2-2---|-2-2---2-2---2---|-5--5-5---5-5---|-5-5---5-5---5--|
|-0---0-0---0-0---|-0-0---0-0---0---|-3--3-3---3-3---|-3-3---3-3---3--|
|-0---0-0---0-0---|-0-0---0-0---0---|-3--3-3---3-3---|-3-3---3-3---3--|
|-0---0-0---0-0---|-0-0---0-0---0---|-3--3-3---3-3---|-3-3---3-3---3--|

|-------------------|-----------------|-------------------------|-------------------|
|-11--11---10--10---|-8--8------------|-------------------------|-------------------|
|-12--12---10--10---|-9--9---12--12---|-10-10-10-10-10-10-10-10-|-10-10-------------|
|-12--12---10--10---|-9--9---10--10---|--8--8--8--8--8--8--8--8-|--8--8-------------|
|-10--10----8---8---|-7--7---10--10---|--8--8--8--8--8--8--8--8-|--8--8-------------|
|-------------------|--------10--10---|--8--8--8--8--8--8--8--8-|--8--8-7-3-0-5-7-8-|

INTERLUDE
|-------------------|-----------------|-----------------|-----------------|
|-------------------|-----------------|-----------------|-----------------|
|-------------------|-----------------|-----------------|-----------------|
|-<5>---------------|-----------------|-----------------|-----------------|
|--5------------8---|-7---------------|-5-----------8---|-7---------------|
|-----0-8-0-7-0---0-|---0-7-3-0-5-7-8-|---0-8-0-7-0---0-|---0-7-3-0-5-7-8-|

VERSE
PRECHORUS
CHORUS

BRIDGE
(Volume Low)
|------------------|----------------||-----------------|-----------------||
|------------------|----------------||o----------------|----------------o||
|------------------|----------------||-----------------|-----------------|| x6
|<5>---------------|----------------||-----------------|-----------------||
|-5------------8---|7---------------||o5-----------8---|-7--------------o||
|----0-8-0-7-0---0-|--0-7-3-0-5-7-8-||---0-8-0-7-0---0-|---0-7-3-0-5-7-8-||

                                    (Volume High)
|-----------------|--------------||------------------|------------------||
|-----------------|--------------||o-----------------|-----------------o||
|-----------------|--------------||------------------|------------------|| x8
|-----------------|--------------||------------------|------------------||
|-5-----------8---|-7------------||o-5-----------8---|-7---------------o||
|---0-8-0-7-0---0-|--------------||----0-8-0-7-0---0-|---0-7-3-0-5-7-8--||


-----------------------------------------------------------------------------------
			      RED FLAG - Billy Talent
-----------------------------------------------------------------------------------
Tabbed by: Mark Monachino
Email: billytalentpunk0@hotmail.com
Tuning: Drop D Tuning (DADGBe)

Update - Thanks to First_fret for correcting the verse!
Update - Thanks to Space Ace10 for correcting the bridge!

NOTE: The times at the bottom correspond to the new version of Red Flag on
Billy Talent II. The demo version still has the same guitar riffs, but the
times at which they are played are slightly altered.

ALSO: This song begins with its chorus.


CHORUS:

e|-------------------|-------------------|-------------------|-------------------|
B|-------------------|--5--5--5--5--5-5--|-------------------|-------------------|
G|--2---2-2-2-2-2-2--|--5--5--5--5--5-5--|-------------------|-------------------|
D|--2---2-2-2-2-2-2--|--5--5--5--5--5-5--|--9---9-9-9-9-9-9--|--7--7--7--7--7-7--|
A|--0---0-0-0-0-0-0--|--3--0--3--0--3-0--|--5---5-5-5-5-5-5--|--3--0--3--0--3-0--|
D|-------------------|-------------------|--5---5-5-5-5-5-5--|--3--0--3--0--3-0--|

e|-------------------|-------------------|-------------------|-------------------|
B|--5--5--5--5--5-5--|-------------------|-------------------|-------------------|
G|--5---5-5-5-5-5-5--|-------------------|-------------------|-------------------|
D|--5---5-5-5-5-5-5--|--9--9--9--9--9-9--|--6---6-6-6-6-6-6--|--9-----9-----9----|
A|--3---3-3-3-3-3-3--|--5--0--5--0--5-0--|--2---2-2-2-2-2-2--|--7--0--7--0--7-0--|
D|-------------------|--5--0--5--0--5-0--|--2---2-2-2-2-2-2--|--6--0--6--0--6-0--|

VERSE:
PART 1:

e|--8--8--8--8-----7-7-7-7----8--8--8--8-----7-7-7-7----4-4-4-4-4---5---7----|
B|--10-10-10-10----9-9-9-9----10-10-10-10----9-9-9-9----3-3-3-3-3---5---9----|
G|--9--9--9--9-----7-7-7-7----9--9--9--9-----7-7-7-7----4-4-4-4-4---5---7----|
D|---------------------------------------------------------------------------|
A|---------------------------------------------------------------------------|
D|---------------------------------------------------------------------------|

PART 2:                                               (slide up in D7 shape,
                                                      then flip your fingers)
e|--8--8--8--8------8--8--8--8--8---7--5--7-7-7-7-----4-4-4-/-10--8---7------|
B|--10-10-10-10-----8--8--8--8--8---6--5--6-6-6-6-----3-3-3-/-9---9---9------|
G|--9--9--9--9------9--9--9--9--9---7--5--7-7-7-7-----4-4-4-/-10--10--10-----|
D|---------------------------------------------------------------------------|
A|---------------------------------------------------------------------------|
D|---------------------------------------------------------------------------|

e|--8--8--8--8------8--8--8--8--8---7--5--7-7-7-7-----4-4-4-4-4--5--7--------|
B|--10-10-10-10-----10-10-10-10-10--6--5--6-6-6-6-----3-3-3-3-3--5--9--------|
G|--9--9--9--9------9--9--9--9--9---7--5--7-7-7-7-----4-4-4-4-4--5--7--------|
D|---------------------------------------------------------------------------|
A|---------------------------------------------------------------------------|
D|---------------------------------------------------------------------------|
PRE-CHORUS:
    H        H                         H
e|--5--------5-------------------------0--------------|
B|--6--------6--------3-3-3-3-3-3-3----1--------------|
G|--5--------7--------4-4-4-5-5-5-4----2--------------|
D|----------------------------------------------------|
A|----------------------------------------------------|
D|----------------------------------------------------|
    H        H                         H
e|--5--------5----------------------------------------|
B|--6--------6--------3-3-3-3-3-3-3----5--------------|
G|--5--------7--------4-4-4-5-5-5-4----4--------------|
D|-------------------------------------2--------------|
A|----------------------------------------------------|
D|----------------------------------------------------|
BRIDGE:
PART 1:
e|--------0-0-0------|-------------------|--5-5---8-8-8-5-0--|--5-5---8-8-8-5-0--|
B|--1-1---1-1-1-1-0--|--3-3---3-3-3-3-0--|--6-6---6-6-6-6-0--|--6-6---6-6-6-6-0--|
G|--2-2---------2-0--|--4-4---5-5-5-4-0--|--7-7---7-7-7-7-0--|--5-5---5-5-5-5-0--|
D|-------------------|-------------------|-------------------|-------------------|
A|-------------------|-------------------|-------------------|-------------------|
D|-------------------|-------------------|-------------------|-------------------|
PART 2:
e|--------0-0-0------|-------------------|--5-5-5-8-8-8-5-0--|--5-5-5-8-8-8-5-0--|
B|--1-1-1-1-1-1-1-0--|--3-3-3-3-3-3-3-0--|--6-6-6-6-6-6-6-0--|--6-6-6-6-6-6-6-0--|
G|--2-2-2-------2-0--|--4-4-4-5-5-5-4-0--|--7-7-7-7-7-7-7-0--|--5-5-5-5-5-5-5-0--|
D|-------------------|-------------------|-------------------|-------------------|
A|-------------------|-------------------|-------------------|-------------------|
D|-------------------|-------------------|-------------------|-------------------|

ORDER:
0:13	INTRO
0:23	VERSE PART 1
0:34	VERSE PART 2
0:44	PRE-CHORUS
0:55	CHORUS		(x2)
1:16	VERSE PART 2 	(x2)
1:37	PRE-CHORUS
1:47	CHORUS		(x2)
2:08	BRIDGE PART 1	(x4)
2:29	BRIDGE PART 2	(x2)
2:40	Played At End Of BRIDGE:
	e|------|
	B|--5\--|
	G|--5\--|
	D|--7\--|
	A|--7\--|
	D|--7\--|
2:40	(No guitar in first CHORUS)
2:53	CHORUS		(x2)
3:14	Played After CHORUS Finishes; At End Of Song:
	e|--8--8--8--8---|
	B|--10-10-10-10--|
	G|--9--9--9--9---|
	D|---------------|
	A|---------------|
	D|---------------|


-------------------------------------------------------------------------------
			 THIS SUFFERING - Billy Talent
-------------------------------------------------------------------------------
Tabbed by: Mark Monachino
Email: billytalentpunk0@hotmail.com
Tuning: Drop D Tuning (DADGBe)

I know it may get a bit confusing at times, but I didn't miss one note, and
I'm sure this is perfect...leave a comment if you don't understand something...

Update - Thanks to george92 for correcting the verse and the bridge!


INTRO:

             P                                                         x2
e|-----------------------------------------------------------------------|
B|----------------------------------13------------------8----------------|
G|--------14------------------12----------------7---9--------------------|
D|--15----------15------14------------------8-----------------------0----|
A|--------------12------------------------------------------8-7-5\3-0----|
D|-----12----12-12---------10----10-----------5---5---5-------------0----|

                                                                       x2
e|-----------------------------------------------------------------------|
B|----------------------------------13b--\--------------8----------------|
G|--------14------------------12----------------7---9--------------------|
D|--15----------15--15--14------------------8-----------------------0----|
A|-----12----12-12--12-----10----10-----------5---5---5---5-8-7-5\3-0----|
D|-----12----12-12--12-----10----10-----------5---5---5---5---------0----|


VERSE:

    H                   H                                              x2
e|--5-------------------3------------------------------------------------|
B|--6-------------------5-------------------------------8----------------|
G|--7-------------------3-----------------------7---9--------------------|
D|--7-------------------5-------------------8-----------------------0----|
A|--5-------------------3---------------------5---5---5---5-8-7-5\3-0----|
D|--------------------------------------------5---5---5---5---------0----|

                                                                       x2
e|--5-5-5-----5------------3-3-----3-------------------------------------|
B|--6-6-6-----6------------5-5-----5--------------------8----------------|
G|--7-7-7-----7------------3-3-----3------------7---9--------------------|
D|--7-7-7-----7------------5-5-----5--------8-----------------------0----|
A|--5-5-5-----5------------3-3-----3----------5---5---5---5-8-7-5\3-0----|
D|--------------------------------------------5---5---5---5---------0----|

At the first note of PRE-CHORUS, another guitar plays:
e|-----|
B|--3--|
G|--3--|
D|--3--|
A|--1--|
D|-----|
which is held until it fades out.
PRE-CHORUS:

e|-----------------------------------------------------------------------|
B|----3---3---3---3---3---3---5---6---3---3---3---3---3---3---5---6------|
G|--3---3---3---3---3---3---3---3---2---2---2---2---2---2---2---2---0----|
D|-----------------------------------------------------------------------|
A|-----------------------------------------------------------------------|
D|-----------------------------------------------------------------------|

e|--6---6-----------6---6-----------5---5---5---5---3---3---3---3--------|
B|--3---3---5---6---3---3---5---6---6---6---6---6---5---5---5---5--------|
G|----0---0---0---0---0---0---0---5---5---5---5---0---0---0---0----------|
D|-----------------------------------------------------------------------|
A|-----------------------------------------------------------------------|
D|-----------------------------------------------------------------------|

This fill is played just before CHORUS, filling in the extra quarter note
space from PRE-CHORUS:

e|------|
B|--33--|
G|--33--|
D|--33--|
A|--11--|
D|------|


CHORUS:

e|-----------------------------------|--5-5-5-5-5-5-5-5-5-5-5-5-5-5-5-5--|
B|--3-3-3-3-3-3-3-3-3-3-3-3-3-3-3-3--|--6-6-6-6-6-6-6-6-6-6-6-6-6-6-6-6--|
G|--3-3-3-3-3-3-3-3-3-3-3-3-3-3-3-3--|--7-7-7-7-7-7-7-7-7-7-7-7-7-7-7-7--|
D|--3-3-3-3-3-3-3-3-3-3-3-3-3-3-3-3--|--7-7-7-7-7-7-7-7-7-7-7-7-7-7-7-7--|
A|--1-1-1-1-1-1-1-1-1-1-1-1-1-1-1-1--|--5-5-5-5-5-5-5-5-5-5-5-5-5-5-5-5--|
D|-----------------------------------|-----------------------------------|

                                                            H
e|-----------------------------------|-------------------|---------------|
B|-----------------------------------|-------------------|--5------------|
G|-----------------------------------|-------------------|--5------------|
D|--5-5-5-5-5-5-5-5-5-5-5-5-5-5-5-77-|--7-7-7-7-7-7-7-7--|--5------------|
A|--5-5-5-5-7-7-8-8-5-5-5-5-7-7-8-33-|--3-3-3-3-3-3-3-3--|--3------------|
D|--5-5-5-5-5-5-5-5-5-5-5-5-5-5-5-33-|--3-3-3-3-3-3-3-3--|---------------|


INTERLUDE:

e|-----------------------------------------------------------------------|
B|----------------------------------13b--\--------------8----------------|
G|--------14------------------12----------------7---9--------------------|
D|--15----------15--15--14------------------8-----------------------0----|
A|-----12----12-12--12-----10----10-----------5---5---5---5-8-7-5\3-0----|
D|-----12----12-12--12-----10----10-----------5---5---5---5---------0----|

VERSE:

    H                   H                                              x2
e|--5-------------------3------------------------------------------------|
B|--6-------------------5-------------------------------8----------------|
G|--7-------------------3-----------------------7---9--------------------|
D|--7-------------------5-------------------8-----------------------0----|
A|--5-------------------3---------------------5---5---5---5-8-7-5\3-0----|
D|--------------------------------------------5---5---5---5---------0----|

                                                                       x2
e|--5-5-5-----5------------3-3-----3-------------------------------------|
B|--6-6-6-----6------------5-5-----5--------------------8----------------|
G|--7-7-7-----7------------3-3-----3------------7---9--------------------|
D|--7-7-7-----7------------5-5-----5--------8-----------------------0----|
A|--5-5-5-----5------------3-3-----3----------5---5---5---5-8-7-5\3-0----|
D|--------------------------------------------5---5---5---5---------0----|


At the first note of PRE-CHORUS, another guitar plays:
e|-----|
B|--3--|
G|--3--|
D|--3--|
A|--1--|
D|-----|
which is held until it fades out.

PRE-CHORUS:

e|-----------------------------------------------------------------------|
B|----3---3---3---3---3---3---5---6---3---3---3---3---3---3---5---6------|
G|--3---3---3---3---3---3---3---3---2---2---2---2---2---2---2---2---0----|
D|-----------------------------------------------------------------------|
A|-----------------------------------------------------------------------|
D|-----------------------------------------------------------------------|

e|--6---6-----------6---6-----------5---5---5---5---3---3---3---3--------|
B|--3---3---5---6---3---3---5---6---6---6---6---6---5---5---5---5--------|
G|----0---0---0---0---0---0---0---5---5---5---5---0---0---0---0----------|
D|-----------------------------------------------------------------------|
A|-----------------------------------------------------------------------|
D|-----------------------------------------------------------------------|

FILL:

e|------|
B|--33--|
G|--33--|
D|--33--|
A|--11--|
D|------|


CHORUS: (x2)

e|-----------------------------------|--5-5-5-5-5-5-5-5-5-5-5-5-5-5-5-5------|
B|--3-3-3-3-3-3-3-3-3-3-3-3-3-3-3-3--|--6-6-6-6-6-6-6-6-6-6-6-6-6-6-6-6------|
G|--3-3-3-3-3-3-3-3-3-3-3-3-3-3-3-3--|--7-7-7-7-7-7-7-7-7-7-7-7-7-7-7-7------|
D|--3-3-3-3-3-3-3-3-3-3-3-3-3-3-3-3--|--7-7-7-7-7-7-7-7-7-7-7-7-7-7-7-7------|
A|--1-1-1-1-1-1-1-1-1-1-1-1-1-1-1-1--|--5-5-5-5-5-5-5-5-5-5-5-5-5-5-5-5------|
D|-----------------------------------|---------------------------------------|

e|-----------------------------------|-------------------|-------------------|
B|-----------------------------------|-------------------|--5-5-5-5-5-5-5-5--|
G|-----------------------------------|-------------------|--5-5-5-5-5-5-5-5--|
D|--5-5-5-5-5-5-5-5-5-5-5-5-5-5-5-77-|--7-7-7-7-7-7-7-7--|--5-5-5-5-5-5-5-5--|
A|--5-5-5-5-7-7-8-8-5-5-5-5-7-7-8-33-|--3-3-3-3-3-3-3-3--|--3-3-3-3-3-3-3-3--|
D|--5-5-5-5-5-5-5-5-5-5-5-5-5-5-5-33-|--3-3-3-3-3-3-3-3--|-------------------|

BRIDGE:

PART 1: (x2)

e|-----------10-10-10---12-12-12---10-10-10----------------8--8--8----10-10-10---8--8--8---|
B|-----------10-10-10---10-10-10---10-10-10----------------10-10-10---10-10-10---10-10-10--|
G|--77-7-7---10-10-10---10-10-10---10-10-10----------------9--9--9----9--9--9----9--9--9---|
D|--77-7-7------------------------------------1010-10-10-----------------------------------|
A|--55-5-5------------------------------------7-7--7--7------------------------------------|
D|--00-0-0------------------------------------7-7--7--7------------------------------------|

e|---------------8-8-8---10-10-10--8-8-8----55--|--5-5-5-5-5-5-5-5--|--5-5-5-5-5-5-5-5-----|
B|---------------6-6-6---6--6--6---6-6-6----66--|--6-6-6-6-6-6-6-6--|--5-5-5-5-5-5-5-5-----|
G|---------------7-7-7---7--7--7---7-7-7----55--|--5-5-5-5-5-5-5-5--|--5-5-5-5-5-5-5-5-----|
D|--1010-10-10------------------------------33--|--3-3-3-3-3-3-3-3--|--2-2-2-2-2-2-2-2-----|
A|--8-8--8--8-------------------------------33--|--3-3-3-3-3-3-3-3--|--3-3-3-3-3-3-3-3-----|
D|--8-8--8--8-------------------------------33--|--3-3-3-3-3-3-3-3--|--2-2-2-2-2-2-2-2-----|

PART 2:

e|--5-5-5-5-5-5-5-5-5-5-5-5-5-5-5-5--|--8--8--8--8--8--8--8--8--8--8--8--8--8--8--8--8-----|
B|--6-6-6-6-6-6-6-6-6-6-6-6-6-6-6-6--|--10-10-10-10-10-10-10-10-10-10-10-10-10-10-10-10----|
G|--7-7-7-7-7-7-7-7-7-7-7-7-7-7-7-7--|--9--9--9--9--9--9--9--9--9--9--9--9--9--9--9--9-----|
D|--7-7-7-7-7-7-7-7-7-7-7-7-7-7-7-7--|--7--7--7--7--7--7--7--7--7--7--7--7--7--7--7--7-----|
A|--5-5-5-5-5-5-5-5-5-5-5-5-5-5-5-5--|--7--7--7--7--7--7--7--7--7--7--7--7--7--7--7--7-----|
D|-----------------------------------|--7--7--7--7--7--7--7--7--7--7--7--7--7--7--7--7-----|

e|--8--8--8--8--8--8--8--8--8--8--8--8--8--8--8--8---|--5-5-5-5-5-5-5-5-|-5-5-5-5-5-5-5-5--|
B|--10-10-10-10-10-10-10-10-10-10-10-10-10-10-10-10--|--6-6-6-6-6-6-6-6-|-5-5-5-5-5-5-5-5--|
G|--10-10-10-10-10-10-10-10-10-10-10-10-10-10-10-10--|--5-5-5-5-5-5-5-5-|-5-5-5-5-5-5-5-5--|
D|--10-10-10-10-10-10-10-10-10-10-10-10-10-10-10-10--|--3-3-3-3-3-3-3-3-|-2-2-2-2-2-2-2-2--|
A|--8--8--8--8--8--8--8--8--8--8--8--8--8--8--8--8---|--3-3-3-3-3-3-3-3-|-3-3-3-3-3-3-3-3--|
D|--8--8--8--8--8--8--8--8--8--8--8--8--8--8--8--8---|--3-3-3-3-3-3-3-3-|-2-2-2-2-2-2-2-2--|

On x1, at the first note of PRE-CHORUS, another guitar plays:
e|-----|
B|--3--|
G|--3--|
D|--3--|
A|--1--|
D|-----|
which is held until it fades out.

On x1, immediately after the last note of PRE-CHORUS, another guitar plays:
e|-------|
B|--333--|
G|--333--|
D|--333--|
A|--111--|
D|-------|
which is held until it fades out.

PRE-CHORUS:  (x2)

e|-----------------------------------------------------------------------|
B|----3---3---3---3---3---3---5---6---3---3---3---3---3---3---5---6------|
G|--3---3---3---3---3---3---3---3---2---2---2---2---2---2---2---2---0----|
D|-----------------------------------------------------------------------|
A|-----------------------------------------------------------------------|
D|-----------------------------------------------------------------------|

e|--6---6-----------6---6-----------5---5---5---5---3---3---3---3--------|
B|--3---3---5---6---3---3---5---6---6---6---6---6---5---5---5---5--------|
G|----0---0---0---0---0---0---0---5---5---5---5---0---0---0---0----------|
D|-----------------------------------------------------------------------|
A|-----------------------------------------------------------------------|
D|-----------------------------------------------------------------------|

FILL:

e|------|
B|--33--|
G|--33--|
D|--33--|
A|--11--|
D|------|


CHORUS: (x3)

e|-----------------------------------|--5-5-5-5-5-5-5-5-5-5-5-5-5-5-5-5------|
B|--3-3-3-3-3-3-3-3-3-3-3-3-3-3-3-3--|--6-6-6-6-6-6-6-6-6-6-6-6-6-6-6-6------|
G|--3-3-3-3-3-3-3-3-3-3-3-3-3-3-3-3--|--7-7-7-7-7-7-7-7-7-7-7-7-7-7-7-7------|
D|--3-3-3-3-3-3-3-3-3-3-3-3-3-3-3-3--|--7-7-7-7-7-7-7-7-7-7-7-7-7-7-7-7------|
A|--1-1-1-1-1-1-1-1-1-1-1-1-1-1-1-1--|--5-5-5-5-5-5-5-5-5-5-5-5-5-5-5-5------|
D|-----------------------------------|---------------------------------------|

e|-----------------------------------|-------------------|-------------------|
B|-----------------------------------|-------------------|--5-5-5-5-5-5-5-5--|
G|-----------------------------------|-------------------|--5-5-5-5-5-5-5-5--|
D|--5-5-5-5-5-5-5-5-5-5-5-5-5-5-5-77-|--7-7-7-7-7-7-7-7--|--5-5-5-5-5-5-5-5--|
A|--5-5-5-5-7-7-8-8-5-5-5-5-7-7-8-33-|--3-3-3-3-3-3-3-3--|--3-3-3-3-3-3-3-3--|
D|--5-5-5-5-5-5-5-5-5-5-5-5-5-5-5-33-|--3-3-3-3-3-3-3-3--|-------------------|



OUTRO:

e|-----------------------------------------------------------------------|
B|----------------------------------13b--\--------------8----------------|
G|--------14------------------12----------------7---9--------------------|
D|--15----------15--15--14------------------8-----------------------0----|
A|-----12----12-12--12-----10----10-----------5---5---5---5-8-7-5\3-0----|
D|-----12----12-12--12-----10----10-----------5---5---5---5---------0----|


-------------------------------------------------------------------------------
			   WORKER BEES - Billy Talent
-------------------------------------------------------------------------------
Tabbed by: Barry Miles
Email: shoebox_of_lies@hotmail.com

Tuning: Drop D (DADGBe)

PreVerse:
e|-3---------------|-------------------|-----------------|-------------------|
B|-4-------4-------|-------------------|-----------------|-------------------|
G|-5-------5-------|-10---12---13------|-8-------7-------|-8---12---10-------|
D|-5-------5-------|-10---13---13------|-6-------5-------|-8---13---10-------|
A|---------6-------|-8----10---11------|-6-------5-------|-6---10---8--------|
D|-----------------|-------------------|-6-------9-------|-------------------|
 "March    On       Wor - ker  Bees     Know    Your       En - e - my"

Verse:
e|---------------------------------|-----------------------------------------|
B|-8-8-8-8-8-8-8-8-4-4-4-4-4-4-4-4-|-6-6-6-6-8-8-8-8-9--9--9--9--9--9--9--9--|
G|-8-8-8-8-8-8-8-8-5-5-5-5-5-5-5-5-|-7-7-7-7-8-8-8-8-10-10-10-10-10-10-10-10-|
D|---------------------------------|-----------------------------------------|
A|---------------------------------|-----------------------------------------|
D|---------------------------------|-----------------------------------------|
 "We take our orders given by the queen..."

e|---------------------------------|---------------------------------|
B|---------------------------------|-4-4-4-4-8-8-8-8-6-6-6-6-6-6-6-6-|
G|-8-8-8-8-8-8-8-8-7-7-7-7-7-7-7-7-|-5-5-5-5-8-8-8-8-7-7-7-7-7-7-7-7-|
D|-6-6-6-6-6-6-6-6-5-5-5-5-5-5-5-5-|---------------------------------|
A|---------------------------------|---------------------------------|
D|---------------------------------|---------------------------------|

e|---------------------------------|-----------------------------------------|
B|-8-8-8-8-8-8-8-8-4-4-4-4-4-4-4-4-|-6-6-6-6-8-8-8-8-9--9--9--9--9--9--9--9--|
G|-8-8-8-8-8-8-8-8-5-5-5-5-5-5-5-5-|-7-7-7-7-8-8-8-8-10-10-10-10-10-10-10-10-|
D|---------------------------------|-----------------------------------------|
A|---------------------------------|-----------------------------------------|
D|---------------------------------|-----------------------------------------|

e|---------------------------------|---------------------------------|
B|-----------------3-3-3-3-3-3-3-3-|-4-4-4-4-6-6-6-6-8-8-8-8-8-8-8-8-|
G|-8-8-8-8-8-8-8-8-4-4-4-4-4-4-4-4-|-5-5-5-5-7-7-7-7-8-8-8-8-8-8-8-8-|
D|-6-6-6-6-6-6-6-6-----------------|---------------------------------|
A|---------------------------------|---------------------------------|
D|---------------------------------|---------------------------------|

Chorus:
e|------------------------------------|---------------------------------|
B|-9--9--9----8-8-8---6-6-6-----------|-------------------------8-8-8-8-|
G|-10-10-10---8-8-8---7-7-7---8-8-8---|---------8-------7-------7-7-7-7-| x3
D|-10-10-10---8-8-8---7-7-7---6-6-6---|-5-5-5-5---5-5-5---5-5-5-5-5-5-5-|
A|-8--8--8----6-6-6---5-5-5---6-6-6---|-5-5-5-5---5-5-5---5-5-5-5-5-5-5-|
D|----------------------------6-6-6---|-5-5-5-5---5-5-5---5-5-5---------|
                                       "Protect the hive from enemies!"

e|-------------------------|-------------------------|
B|-4--4--4--4--3--3--3--3--|-------------------------|
G|-5--5--5--5--3--3--3--3--|-8--8--8--8--8--8--8--8--|
D|-5--5--5--5--3--3--3--3--|-6--6--6--6--6--6--6--6--|
A|-3--3--3--3--1--1--1--1--|-6--6--6--6--6--6--6--6--|
D|-------------------------|-6--6--6--6--6--6--6--6--|

Bridge:
e|-------------------------|-------------------------|
B|-------------------------|-------------------------|
G|-3--3--3-----3--3--3-----|-8--8--8--8--8--8--8-----|
D|-1--1--1-----1--1--1-----|-6--6--6--6--6--6--6-----|
A|-1--1--1-----1--1--1-----|-6--6--6--6--6--6--6-----|
D|-1--1--1--0--1--1--1--0--|-6--6--6--6--6--6--6--0--|
 "And we'll march along..."

e|-------------------------|-------------------------|
B|-------------------------|-4--4--4--4--4--4--4--4--|
G|-3--3--3-----3--3--3-----|-5--5--5--5--5--5--5--5--|
D|-1--1--1-----1--1--1-----|-5--5--5--5--5--5--5--5--|
A|-1--1--1-----1--1--1-----|-3--3--3--3--3--3--3--3--|
D|-1--1--1--0--1--1--1--0--|-------------------------|

e|-------------------------|-------------------------|
B|-------------------------|-------------------------|
G|-7--7--7--7--7--7--7--7--|-8--8--8--8--8--8--8--8--|
D|-5--5--5--5--5--5--5--5--|-6--6--6--6--6--6--6--6--|
A|-5--5--5--5--5--5--5--5--|-6--6--6--6--6--6--6--6--|
D|-5--5--5--5--5--5--5--5--|-6--6--6--6--6--6--6--6--|

e|-------------------------|-------------------------|
B|-4--4--4--4--3--3--3--3--|-------------------------|
G|-5--5--5--5--3--3--3--3--|-8--8--8--8--8--8--8--8--|
D|-5--5--5--5--3--3--3--3--|-6--6--6--6--6--6--6--6--|
A|-3--3--3--3--1--1--1--1--|-6--6--6--6--6--6--6--6--|
D|-------------------------|-6--6--6--6--6--6--6--6--|

Guitar Solo:
e|-------------------------------------------------------------------------|
B|-8-8-8-8-8-8-8-8-4-4-4-4-4-4-4-4-6-6-6-6-8-8-8-8-9--9--9--9--9--9--9--9--|
G|-8-8-8-8-8-8-8-8-5-5-5-5-5-5-5-5-7-7-7-7-8-8-8-8-10-10-10-10-10-10-10-10-|
D|-------------------------------------------------------------------------|
A|-------------------------------------------------------------------------|
D|-------------------------------------------------------------------------|

e|-----------------------------------------------------------------------------------------|
B|-9-9-9-9-9-9-9-9-13-13-13-13-13-13-13-13-12-12-12-12-12-12-12-12-13-13-13-13-15-15-15-15-|
G|-8-8-8-8-8-8-8-8-8--8--8--8--8--8--8--8--7--7--7--7--7--7--7--7--8--8--8--8--10-10-10-10-|
D|-----------------------------------------------------------------------------------------|
A|-----------------------------------------------------------------------------------------|
D|-----------------------------------------------------------------------------------------|

e|-------------------------------------------------|
B|-16-16-16-16-16-16-16-16-13-13-13-13-13-13-13-13-|
G|-12-12-12-12-12-12-12-12-8--8--8--8--8--8--8--8--|
D|-------------------------------------------------|
A|-------------------------------------------------|
D|-------------------------------------------------|

e|-------------------------------------------------|
B|-15-15-15-15-16-16-16-16-18-18-18-18-18-18-18-18-|
G|-10-10-10-10-12-12-12-12-13-13-13-13-13-13-13-13-|
D|-------------------------------------------------|
A|-------------------------------------------------|
D|-------------------------------------------------|

e|-------------------------------------------------|
B|-16-16-16-16-18-18-18-18-20-20-20-20-20-20-20-20-|
G|-12-12-12-12-13-13-13-13-15-15-15-15-15-15-15-15-|
D|-------------------------------------------------|
A|-------------------------------------------------|
D|-------------------------------------------------|

 (start bending G string) (...Then both strings)
e|-------------------------------------------------|
B|-20-20-20-20-20-20-20-20-20-20-20-20-20-20-------|
G|-15-15-15-15-15-15-15-15-15-15-15-15-15-15-------|
D|-------------------------------------------------|
A|-------------------------------------------------|
D|---------------------------------------------\0--|


-----------------------------------------------------------------------------------
                            BILLY TALENT - PINS AND NEEDLES
-----------------------------------------------------------------------------------

Here's Pins and Needles. I'm pretty sure it's 100% correct, find any corrections?

Name: Brendan
Email: x-parasite@e-dimensionz.com

Updated: July 19th

  Put in an alternate intro that I found was easier and sounds more like the CD, and I
in slides in the verse that I didn't hear the first time. Should be PERFECT now.

     Q    E   E  E  E  E  E     E  E  E  E   E  E  Q
e||--------------------------|---------------5------------|
B||--------------------------|--6-----8---------6---------|
G||--------------------------|--7-----8------------7/-----|
D||--------------7-----8-----|----------------------------|
A||-------5h--6--------------|----------------------------|
D||--5--------------5-----0--|-----0-----0----------------|


  Q    E   E  E  E  Q       Q    E  E  E  E  Q       Q    E   E  E  E  E  E
-------------------------|------------------------|--------------------------|
-------------------------|-------------------1----|--------------------------|
-------------------------|----------0--2----------|--------------------------|
--------------0-----3----|-------3----------------|--------------7-----8-----|
-------1h--3-------------|------------------------|-------5h--6--------------|
--1--------------1-------|--0-------------0-------|--5--------------5-----0--|


  E  E  E  E   E   E  Q        Q    E   E  E  E  Q       Q    E  E  E  E  Q
----------------------------|-------------------------|------------------------|
--6-----8-----10------------|-------------------------|-------------------1----|
--7-----8---------10--7\----|-------------------------|----------0--2----------|
----------------------------|--------------0-----3----|-------3----------------|
----------------------------|-------1h--3-------------|------------------------|
-----0-----0----------------|--1--------------1-------|--0-------------0-------|


  W                   W                   W                   W
-------------------|-------------------|-------------------|-------------------|
-------------------|-------------------|-------------------|-------------------|
-------------------|-------------------|-------------------|-------------------|
--5----------------|--0----------------|--1----------------|--0----------------|
--5----------------|--0----------------|--1----------------|--0----------------|
--5----------------|--0----------------|--1----------------|--0----------------|


  W                   W                   Q    E   E  E  E  Q
-------------------|-------------------|-------------------------|
-------------------|-------------------|-------------------------|
-------------------|-------------------|-------------------------|
--5----------------|--0----------------|--------------0-----3----|
--5----------------|--0----------------|-------1h--3-------------|
--5----------------|--0----------------|--1--------------1-------|


  Q    E  E  E  E  Q       Q    E  E  Q    E  E     Q    E  E  E  E  Q
------------------------|--3----------3----------|------------------------|
-------------------1----|--4----4----------------|------------------------|
----------0--2----------|--5-------5-------5-----|-------------------5----|
-------3----------------|--5------------------5--|--3----7-----5--7-------|
------------------------|--3---------------------|--3---------------------|
--0-------------0-------|------------------------|--3-------3-------------|


  E   E  E  E  E  E  Q       E  E  E  E  E  E  Q        Q    E  E  E  E  E  E
--------------------------|--------------------------|-------------------------|
--------------------------|--------------------------|-------------------------|
--------------------------|--------5-----------------|-------------------------|
------------5--8--7--5----|--7-----------8-----7\----|----------3--5--3--1-----|
---------8----------------|--------------------------|-------1--------------0--|
--3S--5-------------------|-----0-----0-----0--------|--1----------------------|


  Q    Q    E  E   Q       W                   W
------------------------|--3----------------|-------------------|
---------------1S--3----|--4----------------|-------------------|
------------3-----------|--5----------------|-------------------|
-------3----------------|--5----------------|--3----------------|
--1---------------------|--3----------------|--3----------------|
------------------------|-------------------|--3----------------|


  Q    E   E  E  E  E  E     E  E  E  E   E  E  Q
--------------------------|---------------5------------|
--------------------------|--6-----8---------6---------|
--------------------------|--7-----8------------7\-----|
--------------7-----8-----|----------------------------|
-------5h--6--------------|----------------------------|
--5--------------5-----0--|-----0-----0----------------|


  Q    E   E  E  E  Q       Q    E  E  E  E  Q       Q    E   E  E  E  E  E
-------------------------|------------------------|--------------------------|
-------------------------|-------------------1----|--------------------------|
-------------------------|----------0--2----------|--------------------------|
--------------0-----3----|-------3----------------|--------------7-----8-----|
-------1h--3-------------|------------------------|-------5h--6--------------|
--1--------------1-------|--0-------------0-------|--5--------------5-----0--|


  E  E  E  E   E  E  Q        Q    E   E  E  E  Q       Q    E  E  E  E  Q
---------------5------------|-------------------------|------------------------|
--6-----8---------6---------|-------------------------|-------------------1----|
--7-----8------------7/-----|-------------------------|----------0--2----------|
----------------------------|--------------0-----3----|-------3----------------|
----------------------------|-------1h--3-------------|------------------------|
-----0-----0----------------|--1--------------1-------|--0-------------0-------|

W                   W                   W                   W
-------------------|-------------------|-------------------|-------------------|
-------------------|-------------------|-------------------|-------------------|
-------------------|-------------------|-------------------|-------------------|
--5/---------------|--0----------------|--1----------------|--0----------------|
--5/---------------|--0----------------|--1----------------|--0----------------|
--5/---------------|--0----------------|--1----------------|--0----------------|


  W                   W                   Q    E   E  E  E  Q
-------------------|-------------------|-------------------------|
-------------------|-------------------|-------------------------|
-------------------|-------------------|-------------------------|
--5/---------------|--0----------------|--------------0-----3----|
--5/---------------|--0----------------|-------1h--3-------------|
--5/---------------|--0----------------|--1--------------1-------|


  Q    E  E  E  E  Q       W                   W
------------------------|-------------------|-------------------|
-------------------1----|-------------------|-------------------|
----------0--2----------|-------------------|-------------------|
-------3----------------|--5/---------------|--0----------------|
------------------------|--5/---------------|--0----------------|
--0-------------0-------|--5/---------------|--0----------------|


  W                   W                   W                   W
-------------------|-------------------|-------------------|-------------------|
-------------------|-------------------|-------------------|-------------------|
-------------------|-------------------|-------------------|-------------------|
--1----------------|--0----------------|--5/---------------|--0----------------|
--1----------------|--0----------------|--5/---------------|--0----------------|
--1----------------|--0----------------|--5/---------------|--0----------------|


  Q    E   E  E  E  Q       Q    E  E  E  E  Q       Q    E  E  Q    E  E
-------------------------|------------------------|--3----------3----------|
-------------------------|-------------------1----|--4----4----------------|
-------------------------|----------0--2----------|--5-------5-------5-----|
--------------0-----3----|-------3----------------|--5------------------5--|
-------1h--3-------------|------------------------|--3---------------------|
--1--------------1-------|--0-------------0-------|------------------------|


  Q    E  E  E  E  Q       E   E  E  E  E  E  Q       E  E  E  E  E  E  Q
------------------------|--------------------------|--------------------------|
------------------------|--------------------------|--------------------------|
-------------------5----|--------------------------|--------5-----------------|
--3----7-----5--7-------|------------5--8--7--5----|--7-----------8-----7\----|
--3---------------------|---------8----------------|--------------------------|
--3-------3-------------|--3S--5-------------------|-----0-----0-----0--------|


  Q    E  E  E  E  E  E     Q    Q    E  E   Q       Q    E  E  Q    E  E
-------------------------|------------------------|--3----------3----------|
-------------------------|---------------1S--3----|--4----4----------------|
-------------------------|------------3-----------|--5-------5-------5-----|
----------3--5--3--1-----|-------3----------------|--5------------------5--|
-------1--------------0--|--1---------------------|--3---------------------|
--1----------------------|------------------------|------------------------|


  Q    E  E  E  E  Q       E   E  E  E  E  E  Q       E  E  E  E  E  E  Q
------------------------|--------------------------|--------------------------|
------------------------|--------------------------|--------------------------|
-------------------5----|--------------------------|--------5-----------------|
--3----7-----5--7-------|------------5--8--7--5----|--7-----------8-----7\----|
--3---------------------|---------8----------------|--------------------------|
--3-------3-------------|--3S--5-------------------|-----0-----0-----0--------|


  Q    E  E  E  E  E  E     Q    Q    E  E   Q       W
-------------------------|------------------------|--3----------------|
-------------------------|---------------1S--3----|--4----------------|
-------------------------|------------3-----------|--5----------------|
----------3--5--3--1-----|-------3----------------|--5----------------|
-------1--------------0--|--1---------------------|--3----------------|
--1----------------------|------------------------|-------------------|


  W                   Q    E   E  E  E  E  E     E  E  E  E   E   E  Q
-------------------|--------------------------|----------------------------|
-------------------|--------------------------|--6-----8-----10------------|
-------------------|--------------------------|--7-----8---------10--7\----|
--3----------------|--------------7-----8-----|----------------------------|
--3----------------|-------5h--6--------------|----------------------------|
--3----------------|--5--------------5-----0--|-----0-----0----------------|


  Q    E   E  E  E  Q       Q    E  E  E  E  Q       E  E  E  E  E  E  E  E
-------------------------|------------------------|--------------------------|
-------------------------|-------------------1----|--------------------------|
-------------------------|----------0--2----------|--------------------------|
--------------0-----3----|-------3----------------|--1--1--1--1--1--1--1--1--|
-------1h--3-------------|------------------------|--1--1--1--1--1--1--1--1--|
--1--------------1-------|--0-------------0-------|--1--1--1--1--1--1--1--1--|


  E  E  E  E  E  E  E  E     E  E  E  E  E  E  Q       Q    Q    Q    Q
--------------------------|-------------------------|----------------------|
--------------------------|-------------------------|----------------------|
--------------------------|--------------------5----|----------------------|
--5--5--5--5--5--5--5--5--|--3--3--7--3--5--7-------|--1----1----1----1----|
--5--5--5--5--5--5--5--5--|--3--3-----3-------------|--1----1----1----1----|
--5--5--5--5--5--5--5--5--|--3--3-----3-------------|--1----1----1----1----|


  E  E  E  E  E  E  E  E     E  E  E  E  E  E  E  E     E  E  E  E  E  E  Q
--------------------------|--------------------------|-------------------------|
--------------------------|--------------------------|-------------------------|
--------------------------|--------------------------|--------------------5----|
--1--1--1--1--1--1--1--1--|--5--5--5--5--5--5--5--5--|--3--3--7--3--5--7-------|
--1--1--1--1--1--1--1--1--|--5--5--5--5--5--5--5--5--|--3--3-----3-------------|
--1--1--1--1--1--1--1--1--|--5--5--5--5--5--5--5--5--|--3--3-----3-------------|


  Q    Q    Q    Q       E  E  E  E  E  E  E  E     E  E  E  E  E  E  E  E
----------------------|--------------------------|--------------------------|
----------------------|--------------------------|--------------------------|
----------------------|--------------------------|--------------------------|
--1----1----1----1----|--1--1--1--1--1--1--1--1--|--5--5--5--5--5--5--5--5--|
--1----1----1----1----|--1--1--1--1--1--1--1--1--|--5--5--5--5--5--5--5--5--|
--1----1----1----1----|--1--1--1--1--1--1--1--1--|--5--5--5--5--5--5--5--5--|


  E  E  E  E  E  E  Q       Q    Q    Q    Q       E  E  E  E  E  E  E  E
-------------------------|----------------------|--------------------------|
-------------------------|----------------------|--------------------------|
--------------------5----|----------------------|--------------------------|
--3--3--7--3--5--7-------|--1----1----1----1----|--1--1--1--1--1--1--1--1--|
--3--3-----3-------------|--1----1----1----1----|--1--1--1--1--1--1--1--1--|
--3--3-----3-------------|--1----1----1----1----|--1--1--1--1--1--1--1--1--|


  E  E  E  E  E  E  E  E     E  E  E  E  E  E  Q       Q    Q    Q    Q
--------------------------|-------------------------|----------------------|
--------------------------|-------------------------|----------------------|
--------------------------|--------------------5----|----------------------|
--5--5--5--5--5--5--5--5--|--3--3--7--3--5--7-------|--1----1----1----1----|
--5--5--5--5--5--5--5--5--|--3--3-----3-------------|--1----1----1----1----|
--5--5--5--5--5--5--5--5--|--3--3-----3-------------|--1----1----1----1----|


  Q    E  E  Q    E  E     Q    E  E  E  E  Q       E   E  E  E  E  E  Q
--3----------3----------|------------------------|--------------------------|
--4----4----------------|------------------------|--------------------------|
--5-------5-------5-----|-------------------5----|--------------------------|
--5------------------5--|--3----7-----5--7-------|------------5--8--7--5----|
--3---------------------|--3---------------------|---------8----------------|
------------------------|--3-------3-------------|--3S--5-------------------|


  E  E  E  E  E  E  Q        Q    E  E  E  E  E  E     Q    Q    E  E   Q
--------------------------|-------------------------|------------------------|
--------------------------|-------------------------|---------------1S--3----|
--------5-----------------|-------------------------|------------3-----------|
--7-----------8-----7\----|----------3--5--3--1-----|-------3----------------|
--------------------------|-------1--------------0--|--1---------------------|
-----0-----0-----0--------|--1----------------------|------------------------|


  Q    E  E  Q    E  E     Q    E  E  E  E  Q       E   E  E  E  E  E  Q
--3----------3----------|------------------------|--------------------------|
--4----4----------------|------------------------|--------------------------|
--5-------5-------5-----|-------------------5----|--------------------------|
--5------------------5--|--3----7-----5--7-------|------------5--8--7--5----|
--3---------------------|--3---------------------|---------8----------------|
------------------------|--3-------3-------------|--3S--5-------------------|


  E  E  E  E  E  E  Q        Q    E  E  E  E  E  E     Q    Q    E  E   Q
--------------------------|-------------------------|------------------------|
--------------------------|-------------------------|---------------1S--3----|
--------5-----------------|-------------------------|------------3-----------|
--7-----------8-----7\----|----------3--5--3--1-----|-------3----------------|
--------------------------|-------1--------------0--|--1---------------------|
-----0-----0-----0--------|--1----------------------|------------------------|


  Q    E  E  Q    E  E     Q    E  E  E  E  Q       E  E   E  E  E  E  E  E
--3----------3----------|------------------------|---------------------------|
--4----4----------------|------------------------|---------------------------|
--5-------5-------5-----|-------------------5----|--L------------------------|
--5------------------5--|--3----7-----5--7-------|---------------5--8--7--5--|
--3---------------------|--3---------------------|------------8--------------|
------------------------|--3-------3-------------|-----3S--5-----------------|


  E  E  E  E  E  E  E  E      E  E  E  E  Q    Q       E  Q    Q    E  E   E
---------------------------|------------------------|-------------------------|
---------------------------|------------------------|------------------1S--3--|
-----------5---------------|------------------------|---------------3---------|
--L--7-----------8-----7S--|--1--1--5--3--1----0----|----------3--------------|
---------------------------|------------------------|--0--1-------------------|
--------0-----0-----0------|------------------------|-------------------------|


  W                   W                   Q    E   E  E  E  E  E
--3----------------|-------------------|--------------------------|
--4----------------|-------------------|--------------------------|
--5----------------|-------------------|--------------------------|
--5----------------|--3----------------|--------------7-----8-----|
--3----------------|--3----------------|-------5h--6--------------|
-------------------|--3----------------|--5--------------5-----0--|


  E  E  E  E   E  E  Q        Q    E   E  E  E  Q       Q    E  E  E  E  Q
---------------5-----------|-------------------------|------------------------|
--6-----8---------6--------|-------------------------|-------------------1----|
--7-----8------------7\----|-------------------------|----------0--2----------|
---------------------------|--------------0-----3----|-------3----------------|
---------------------------|-------1h--3-------------|------------------------|
-----0-----0---------------|--1--------------1-------|--0-------------0-------|


  Q    E   E  E  E  E  E     E  E  E  E   E  E  Q
--------------------------|---------------5------------|
--------------------------|--6-----8---------6---------|
--------------------------|--7-----8------------7\-----|
--------------7-----8-----|----------------------------|
-------5h--6--------------|----------------------------|
--5--------------5-----0--|-----0-----0----------------|


  Q    E   E  E  E  Q       Q    E  E  E  E  Q       W
-------------------------|------------------------|-------------------|
-------------------------|-------------------1----|-------------------|
-------------------------|----------0--2----------|-------------------|
--------------0-----3----|-------3----------------|--5----------------|
-------1h--3-------------|------------------------|--5----------------|
--1--------------1-------|--0-------------0-------|--5----------------|


  W
-------------------------------------------------------------------------------|
-------------------------------------------------------------------------------|
-------------------------------------------------------------------------------|
--L----------------------------------------------------------------------------|
--L----------------------------------------------------------------------------|
--L----------------------------------------------------------------------------|
-------------------------------------------------------------------------------|
                      BILLY TALENT - FALLEN LEAVES
------------------------------------------------------------------------------
Here's Fallen Leaves. Find any corrections? Email me.

Name: Brendan
Email: x-parasite@e-dimensionz.com

Updated: July 29th-change in riff, and verse. -  george92

Alternate riff for intro: - monachima505

e|----------------------------------------------------------------------|
B|-4-4-4-4-3-3-3-3-3-6-4-4-4-4-4-1-1-1-1---------1-1-1/3-0-0-0-0--------|
G|-5-0-5-0-4-0-4-0-4-0-0-3-0-3-0-1-0-1-0-5-5-5-5-x-x-x---0-0-0-0--------|
D|---------------------------------------3-3-3-3-1-1-1/3-0-0-0-0--------|
A|----------------------------------------------------------------------|
D|----------------------------------------------------------------------|

=============================================================================

Intro Part 1
Light Distortion
e|----------------------------------------------------------------------|
B|-4-4-4-4-3-3-3-3-3-6-4-4-4-4-4-4-4-4-4-1-1-1-1-1-1-1---0-0-0-0--------|
G|-5-0-5-0-4-0-4-0-4-0-0-3-0-3-0-1-0-1-1-x-x-x-x-x-x-x---0-0-0-0--------|
D|---------------------------------------3-3-3-3-1-1-1/3-0-0-0-0--------| x2
A|----------------------------------------------------------------------|
D|----------------------------------------------------------------------|

Intro Part 2
Heavy Distortion
e|----------------------------------------------------------------------|
B|----------------------------------------------------------------------|
G|-5--5-----------------------------------------------------------------|
D|-5--5-0-5--5--5--5-6-5-3-1--1-1-6--6-5-3--3-3--1-1-1-3--5-5-5-5-5-----|
A|-3--3-0-5--5--5--5-6-5-3-1--1-1-6--6-5-3--3-3--1-1-1-3--5-5-5-5-5-----|
D|------0-5--5--5--5-6-5-3-1--1-1-6--6-5-3--3-3--1-1-1-3--5-5-5-5-5-----|

Verse Part 1
Clean/Light Distortion
e|-3-----------------------3--------------------------------------------|
B|-4-----------7-----------4-----------8--------------------------------|
G|-5-----------8-----------5-----------8--------------------------------|
D|-5----5-5-1--8----5-5-1--5----5-5-1--8--5-5-1-------------------------|
A|-3----5-5-1--6----5-5-1--3----5-5-1--6--5-5-1-------------------------|
D|------5-5-1-------5-5-1-------5-5-1-----5-5-1-------------------------|

Verse Part 2
Light Distortion
e|----------------------------------------------------------------------|
B|----------------------------------------------------------------------|
G|--5-5-5-5-------------------------------------------------------------|
D|--5-5-5-5--6-6-6-6--8-8-8-8--1-1-1-1--6-6-6-5-3-3-3-2-1-1-1-3-5-5-5-5-|
A|--3-3-3-3--6-6-6-6--8-8-8-8--1-1-1-1--6-6-6-5-3-3-3-2-1-1-1-3-5-5-5-5-|
D|-----------6-6-6-6--8-8-8-8--1-1-1-1--6-6-6-5-3-3-3-2-1-1-1-3-5-5-5-5-|

Pre-chorus
Light Distortion
e|----------------------------------------------------------------------|
B|----------------------------------------------------------------------|
G|--5-5-5-5---------------------------------------------4-4-4-4-4-4-4-4-|
D|--5-5-5-5--6-6-6-6--8-8-8-8--1-1-1-1--6-6-6-6-6-6-6-6-4-4-4-4-4-4-4-4-|
A|--3-3-3-3--6-6-6-6--8-8-8-8--1-1-1-1--6-6-6-6-6-6-6-6-2-2-2-2-2-2-2-2-|
D|-----------6-6-6-6--8-8-8-8--1-1-1-1--6-6-6-6-6-6-6-6-----------------|

Chorus
Heavy Distortion
e|----------------------------------------------------------------------|
B|----------------------------------------------------------------------|
G|-5--5-----------------------------------------------------------------|
D|-5--5-0-5--5--5--5-6-5-3-1--1-1-6--6-5-3--3-3--1-1-1-3--5-5-5-5-5-----| x2
A|-3--3-0-5--5--5--5-6-5-3-1--1-1-6--6-5-3--3-3--1-1-1-3--5-5-5-5-5-----|
D|------0-5--5--5--5-6-5-3-1--1-1-6--6-5-3--3-3--1-1-1-3--5-5-5-5-5-----|

Post Chorus
Light/Heavy Distortion
e|-3---3--3---------------------------3---3--3--------------------------|
B|-4---4--4---------8--8-8------------4---4--4---------8--8-8-----------|
G|-5---5--5---------8--8-8------------5---5--5---------8--8-8-----------|
D|(5)-(5)(5)-5-5-1--8--8-8-----5-5-1-(5)-(5)(5)-5-5-1--8--8-8--5-5-1----|
A|(3)-(3)(3)-5-5-1--6--6-6-----5-5-1-(3)-(3)(3)-5-5-1--6--6-6--5-5-1----|
D|-----------5-5-1-------------5-5-1------------5-5-1----------5-5-1----|

Verse Part 1
Clean/Light Distortion
e|-3-----------------------3--------------------------------------------|
B|-4-----------7-----------4-----------8--------------------------------|
G|-5-----------8-----------5-----------8--------------------------------|
D|-5----5-5-1--8----5-5-1--5----5-5-1--8--5-5-1-------------------------|
A|-3----5-5-1--6----5-5-1--3----5-5-1--6--5-5-1-------------------------|
D|------5-5-1-------5-5-1-------5-5-1-----5-5-1-------------------------|

Pre-chorus
Light Distortion
e|----------------------------------------------------------------------|
B|----------------------------------------------------------------------|
G|--5-5-5-5---------------------------------------------4-4-4-4-4-4-4-4-|
D|--5-5-5-5--6-6-6-6--8-8-8-8--1-1-1-1--6-6-6-6-6-6-6-6-4-4-4-4-4-4-4-4-|
A|--3-3-3-3--6-6-6-6--8-8-8-8--1-1-1-1--6-6-6-6-6-6-6-6-2-2-2-2-2-2-2-2-|
D|-----------6-6-6-6--8-8-8-8--1-1-1-1--6-6-6-6-6-6-6-6-----------------|

Chorus
Heavy Distortion
e|----------------------------------------------------------------------|
B|----------------------------------------------------------------------|
G|-5--5-----------------------------------------------------------------|
D|-5--5-0-5--5--5--5-6-5-3-1--1-1-6--6-5-3--3-3--1-1-1-3--5-5-5-5-5-----| x2
A|-3--3-0-5--5--5--5-6-5-3-1--1-1-6--6-5-3--3-3--1-1-1-3--5-5-5-5-5-----|
D|------0-5--5--5--5-6-5-3-1--1-1-6--6-5-3--3-3--1-1-1-3--5-5-5-5-5-----|

Solo
Light Distortion
E|-------------------------------------------------------------------------|
B|--------------8v---------------8v--------8h9-----8h9----8-7-6---11/13/15-|
G|-5h7h8-5h7-4-----7h8h10-7h8-------10-------8--------8--------------------|
D|-----------------------------8--------10------10------8------------------|
A|-------------------------------------------------------------------------|
E|-------------------------------------------------------------------------|

E|-------------------------------------------------------------------------|
B|-------------8v---------------8v--------8h9-----8h9----8-7-6-------------|
G|-5h7h8-5h7-4-----7h8h10-7h8-------10--------8-------8--------7-----------|
D|-----------------------------8--------10------10------8---------8\-------|
A|-------------------------------------------------------------------------|
E|-------------------------------------------------------------------------|

Bridge
Light Distortion
e|-4----------3-3-3-3-3--4----------------------3-3-3-3-3--4------------|
B|-6-------4--4-4-4-4-4--6-------------4-4-3----4-4-4-4-4--6------------|
G|-5-------5--5-5-5-5-5--5-------------5-----5--5-5-5-5-5--5------------|
D|----5-5--5--5-5-5-5-5-----3-5-6-5-5--5--------5-5-5-5-5-----3-5-6-5-5-|
A|----5-5-----6-6-6-6-6-----------5-5-----------6-6-6-6-6-----------5-5-|
D|----5-5-------------------------5-5-------------------------------5-5-|

e|-----------3-3-3-3-3--------------------------------------------------|
B|--4-4-3----4-4-4-4-4--------------------------------------------------|
G|--5-----5--5-5-5-5-5-------------------4-4-4-4-4-4-4-4----------------|
D|--5--------5-5-5-5-5--5-5-5-5-5-5-5-5--5-5-5-5-5-5-5-5----------------|
A|-----------6-6-6-6-6--5-5-5-5-5-5-5-5--2-2-2-2-2-2-2-2----------------|
D|----------------------5-5-5-5-5-5-5-5---------------------------------|

Riff 1
Light Distortion
e|----------------------------------------------------------------------|
B|-4-4-4-4-3-3-3-3-3-6-4-4-4-4-4-4-4-4-4-1-1-1-1-1-1-1---0-0-0-0--------|
G|-5-0-5-0-4-0-4-0-4-0-0-3-0-3-0-1-0-1-1-x-x-x-x-x-x-x---0-0-0-0--------|
D|---------------------------------------3-3-3-3-1-1-1/3-0-0-0-0--------| x2
A|----------------------------------------------------------------------|
D|----------------------------------------------------------------------|

Chorus
Heavy Distortion
e|-----------------------------------------------------------------------------|
B|-----------------------------------------------------------------------------|
G|-5--5------------------------------------------------------------------------|
D|-5--5-0-5--5--5--5-6-5-3-1--1-1-6--6-5-3--3-3--1-1-1-3--5-5-5-5-5------------| x4
A|-3--3-0-5--5--5--5-6-5-3-1--1-1-6--6-5-3--3-3--1-1-1-3--5-5-5-5-5------------|
D|------0-5--5--5--5-6-5-3-1--1-1-6--6-5-3--3-3--1-1-1-3--5-5-5-5-5------------|
-------------------------------------------------------------------------------|
                         BILLY TALENT - WHERE IS THE LINE?
------------------------------------------------------------------------------

FINALLY EDITED

INTRO
======
e|---------------------------------|-------------0---------------0---|
B|-------3-------3-------3-------3-|-----5-------3-------5-------3---|
G|-----0-------0-------0-------0---|-----7-------0-------7-------0---|
D|---4-------4-------4-------4-----|-5-5-5---2-2-----5-5-5---2-2-----|
A|-2-------4-------5---------------|-5-5-----2-2-----5-5-----2-2-----|
D|-------------------------0-------|-5-5-----2-2-----5-5-----2-2-----|
                                     . .     . .     . .     . .

e|---------------------------------|-5~~~~~~~~~~~~~~-2~~~~~~~~~~~~~~-|
B|-------3-------3-------3-------3-|-7~~~~~~~~~~~~~~-3~~~~~~~~~~~~~~-|
G|-----0-------0-------0-------0---|-7~~~~~~~~~~~~~~-4~~~~~~~~~~~~~~-|
D|---4-------4-------4-------4-----|-5~~~~~~~~~~~~~~-2~~~~~~~~~~~~~~-|
A|-2-------4-------5---------------|-5~~~~~~~~~~~~~~-2~~~~~~~~~~~~~~-|
D|-------------------------0-------|-5~~~~~~~~~~~~~~-2~~~~~~~~~~~~~~-|

e|-5---5---5-5-5-5---5-5---5-5-5-5-|---------------------------------|
B|-7---7---7-7-7-7---7-7---7-7-7-7-|-7---7---7-7-7-7---7-7---7-7-7-7-|
G|-7---7---7-7-7-7---7-7---7-7-7-7-|-7---7---7-7-7-7---7-7---7-7-7-7-|
D|-7---7---7-7-7-7---7-7---7-7-7-7-|-5---5---5-5-5-5---5-5---5-5-5-5-|
A|-5---5---5-5-5-5---5-5---5-5-5-5-|-7---7---7-7-7-7---7-7---7-7-7-7-|
D|---------------------------------|---------------------------------|

e|-0---0---0-0-0-0---0-0---0-0-0-0-|-0-0-0-0-------------------------|
B|-3---
Добавлено: 27.07.2012
Другие материалы по этой песне:
  • Аккорды и текст

Страница создана 28.03.2012
http://primanota.ru/billy-talent/billy-talent-ii-album-chords.htm
Привет, Гость.
Предлагаем пройти революционный курс по гитаре.
Подарок от PrimaNota.Ru, забирай!