PrimaNota.ru - самый крупный в мире бесплатный архив песенных текстов, аккордов, табулатур и нот


Behemoth - Christians To The Lions - текст песни, таба, видео

Регистрация Запомнить меня
Войти через:  Facebook Google Twitter Vk Yandex Mail.ru

Behemoth - Christians To The Lions - текст песни, таба, видео

Печатать
Просмотров: 281
Song:"CHRISTIANS TO THE LIONS"
From:"THELEMA.6"

|-------------------------------|
| http://behemoth.metalkings.com|
|-------------------------------|

music: Nergal
words: Nergal

transcribed by: Volsky

Riff 1
E------------------------------------------------------------------------
B------------------------------------------------------------------------
G------------------------------------------------------------------------
D---------------------------------------------1097-986-------------------
A------1097-986-----1097-986-----1097-986--------------------------------
E--0000---------0000---------0000---------0000---------------------------

E------------------------------------------------------------------------
B------------------------------------------------------------------------
G------------------------------------------------------------------------
D------------------------------------------------------------------------
A------1097-986-----1097-986-----1097-986--------------------------------
E--0000---------0000---------0000---------0000-1097-986------------------

Riff 1A
E------------------------------------------------------------------------
B------------------------------------------------------------------------
G------------------------------------------------------------------------
D---------------------------------------------1097-986-------------------
A------1097-986-----1097-986-----1097-986--------------------------------
E--0000---------0000---------0000---------0000---------------------------

E------------------------------------------------------------------------
B------------------------------------------------------------------------
G---------------------------------------------12-13-16-12~---------------
D------------------------------------------------------------------------
A------1097-986-----1097-986-----1097-986--------------------------------
E--0000---------0000---------0000----------------------------------------

Riff 1B
E------------------------------------------------------------------------
B------------------------------------------------------------------------
G---------------------------------------------1097-986-------------------
D------1097-986-----1097-986-----1097-986--------------------------------
A------------------------------------------------------------------------
E--0000---------0000---------0000---------0000---------------------------

E------------------------------------------------------------------------
B------------------------------------------------------------------------
G------------------------------------------------------------------------
D------1097-986-----1097-986-----1097-986--------------------------------
A------------------------------------------------------------------------
E--0000---------0000---------0000----------------------------------------

Riff 2
E------------------------------------------------------------------------
B------------------------------------------------------------------------
G------------------------------------------------------------------------
D--2----10--7------7/9-9-----10--7---------------------------------------
A--2-----8--5------5/7-7------8--5---------------------------------------
E--0--00------0000-----0000--------875-764-875-764-----------------------

Riff 1D
E-------------------------^12~-------------------------------------------
B------------------------------------------------------------------------
G------------------------------------------------------------------------
D--2-2-2-2-2-2-2-2-------------------------------------------------------
A--2-2-2-2-2-2-2-2-------------------------------------------------------
E--0-0-0-0-0-0-0-0-------------------------------------------------------

Riff 1
E------------------------------------------------------------------------
B------------------------------------------------------------------------
G------------------------------------------------------------------------
D---------------------------------------------1097-986-------------------
A------1097-986-----1097-986-----1097-986--------------------------------
E--0000---------0000---------0000---------0000---------------------------

E------------------------------------------------------------------------
B------------------------------------------------------------------------
G------------------------------------------------------------------------
D------------------------------------------------------------------------
A------1097-986-----1097-986-----1097-986--------------------------------
E--0000---------0000---------0000---------0000-1097-986------------------

Riff 1C
E------------------------------------------------------------------------
B------------------------------------------------------------------------
G---------------------------------------------1097-986-------------------
D------1097-986-----1097-986-----1097-986--------------------------------
A------------------------------------------------------------------------
E--0000---------0000---------0000---------0000---------------------------

E------------------------------------------------------------------------
B------------------------------------------------------------------------
G------------------------------------------------------------------------
D------1097-986-----1097-986-----1097-986--------------------------------
A----------------------------------------------1097-986------------------
E--0000---------0000---------0000---------0000---------------------------

Behold bastard son		I am the Evil One
No glory to be reached		No more thy slavery
The passions I besieged		Spawn terror smash thy will
Ye pale dominions fde away	My will dominates

solo:
E--h19p1512-h19p1512-h19p1512-h19p1512-h20p1512-h20p1512-h20p1512-h20p1512
B------------------------------------------------------------------------
G------------------------------------------------------------------------
D------------------------------------------------------------------------
A------------------------------------------------------------------------
E------------------------------------------------------------------------

E--24/-------------------------------------------------------------------
B------------------------------------------------------------------------
G------------------------------------------------------------------------
D------------------------------------------------------------------------
A------------------------------------------------------------------------
E------------------------------------------------------------------------

E------------------------------------------------------------------------
B------------------------------------------------------------------------
G--15h16p15h16p15h16p-----------------16-15~/21~-------------------------
D--------------------17------14-16-17-----------------------------------
A------------------------------------------------------------------------
E------------------------------------------------------------------------

And watch my star arise		Burning up the earth
Sun-the eye ov gods		Threw into the space
Watch ye moon eclipse		Falling from thy grace
Watch all nations cry		All feared ov His name

Rise me! rise me high!		Lead throu the gates ov sun
Rise me! rise me high!		Where angels do not dare to fly
Invite to feast ov gods		And let me drift away
Leaves flames ov infamy		And watch me kiss the stars

Riff 3
E------------------------------------------------------------------------
B------------------------------------------------------------------------
G------------------------------------------------------------------------
D------------------------------------------------------------------------
A----7-7----7----6--------------222222111--------------------------------
E--0-----00---00-------------------------33------------------------------

Riff 3A
E------------------------------------------------------------------------
B------------------------------------------------------------------------
G------------------------------------------------------------------------
D------------------------------------------------------------------------
A-------------------------------222222111----------------------------------
E----------------------------------------33--------------------------------

CHORUS:

Praise the flame!
watch angels falling from the skies
praise the flame!
I killed thy god, my will is done!
Thou art Lord

E--------------------|------------|--------------------|
B--------------------|------------|--------------------|
G--------------------|------------|--------------------| (First devastation
D--2---4---3---------|--2---4---3-|--2---4---3---------|	by Inferno)
A--2---2-5-1--4---^7-|--2---2-5-1-|--2---2-5-1--4---^7-|
E--0-----3----2------|--0-----3---|--0-----3----2------|

E--------------------|------------|--------------------|
B--------------------|------------|--------------------|
G--------------------|------------|--------------------| (Second devastation
D--2---4---3---------|--2---4---3-|--2---4---3---------|	by Inferno)
A--2---2-5-1--4---^7-|--2---2-5-1-|--2---2-5-1--4---^7-|
E--0-----3----2------|--0-----3---|--0-----3----2------|

I guitar
E---------------------------------------------------------- |
B---------------------------------------------------------- |
G---------------------------------------------------------- |
D---------------------------------------------1097-986----- |
A------1097-986-----1097-986-----1097-986------------------ |
E--0000---------0000---------0000---------0000------------- |

II guitar
E---------------------------------------------------------- |
B---------------------------------------------------------- |
G---------------------------------------------------------- |
D--2------------------------------------------------------- |
A--2------------------------------------------------------- |
E--0------------------------------------------------------- |

I guitar
E---------------------------------------------------------- |
B---------------------------------------------------------- |
G---------------------------------------------------------- |
D---------------------------------------------------------- |
A------1097-986-----1097-986-----1097-986------------------ |
E--0000---------0000---------0000---------0000-1097-986---- |

II guitar
E---------------------------------------------------------- |
B---------------------------------------------------------- |
G---------------------------------------------------------- |
D--2------------222----------2-2--------------------------- |
A--2------------222----------2-2--------------------------- |
E--0------------000----------0-0--------------------------- |

E------------------------------------------------------------------------
B------------------------------------------------------------------------
G------------------------------------------------------------------------
D---------------------------------------------1097-986-------------------
A------1097-986-----1097-986-----1097-986--------------------------------
E--0000---------0000---------0000---------0000---------------------------

E------------------------------------------------------------------------
B------------------------------------------------------------------------
G------------------------------------------------------------------------
D------------------------------------------------------------------------
A------1097-986-----1097-986-----1097-986--------------------------------
E--0000---------0000---------0000---------0000-1097-986------------------

The ending:
E----------------------------------------------------------------- |
B----------------------------------------------------------------- |
G------------------------------------161616161616-141414141414---- |
D----------------------------------------------------------------- |
A-----10-11--11-10-----10-11--11-10------------------------------- |
E--000-----00-----0-000-----00------------------------------------ |

E----------------------------------------------------------------- |
B----------------------------------------------------------------- |
G----------------------------------------------------------------- |
D-------------------------------------99999976-----99999976------- |
A-----10-11--11-10-----10-11--11-10-----------8888---------8888--- |
E--000-----00-----0-000-----00------------------------------------ |

E------------------------------------------------------------------------
B------------------------------------------------------------------------
G------------------------------------------------------------------------
D------------------------------------------------------------------------
A-----10-11--11-10-----10-11--11-10---10-11--11-10--10-11--11-10---------
E--000-----00-----0-000-----00-----000-----00-----00-----00--------------

E------------------------------------------------------------------------
B------------------------------------------------------------------------
G------------------------------------------------------------------------
D-----10-11--11-10-----10-11--11-10---10-11--11-10--10-11--11-10---------
A------------------------------------------------------------------------
E--000-----00-----0-000-----00-----000-----00-----00-----00--------------


IN ORDER NOW:

GUITAR I	GUITAR II	GUITAR III
Riff 1 x1	Riff 1 x1
Riff 1Ax1	Riff 1Bx1
Riff 2 x2	Riff 2 x2
Riff 1 x1	Riff 1 x1	Riff 1D
Riff 1 x1	Riff 1Cx1
Riff 3 x1	Riff 3Ax1
Riff 3 x3	Riff 3 x3
solo		Riff 1 x1
Riff 3 x4	Riff 3 x4
CHORUS	CHORUS
	BRIDGE
Riff 1 x1	Riff 1Cx1
Riff 3 x4	Riff 3 x4
Добавлено: 10.05.2012
Другие материалы по этой песне:

Страница создана 12.03.2012
http://primanota.ru/behemoth/christians-to-the-lions-chords.htm
Привет, Гость.
Предлагаем пройти революционный курс по гитаре.
Подарок от PrimaNota.Ru, забирай!