PrimaNota.ru - самый крупный в мире бесплатный архив песенных текстов, аккордов, табулатур и нот


Beatles - Past Masters Vol 1 - таба, видео

Регистрация Запомнить меня
Войти через:  Facebook Google Twitter Vk Yandex Mail.ru

Beatles - Past Masters Vol 1 - таба, видео

Печатать
Просмотров: 212
Past Masters Vol. One
Album


1. Love Me Do
2. From Me To You
3. Thank You Girl
4. She Loves You
5. I'll Get You
6. I Want To Hold Your Hand
7. This Boy
8. Komm, Gib Mir Deine Hand
9. Sie Liebt Dich
10. Long Tall Sally
11. I Call Your Name
12. Slow Down
13. Matchbox
14. I Feel Fine
15. She's A Woman
16. Bad Boy
17. Yes It Is
18. I'm Down


==========================================================================


Love me do


intro: (played on harmonica)


E--12h13--11h12--9h10-----------------------|
B----------------------8-8---8-8-8----------|
G-------------------------------------------|
D-------------------------------------------|
A-------------------------------------------|
E-------------------------------------------|


E---12h13--13--13--11h12--12--12--9h10---------------|
B---------------------------------------8-8---8-8-8--|
G----------------------------------------------------|
D----------------------------------------------------|
A----------------------------------------------------|
E----------------------------------------------------|


E--12h13--11h12--9h10---------8-7----------------8-7/3--|
B----------------------8-8--8-----8-8-8--8-8-8-8--------|
G-------------------------------------------------------|
D-------------------------------------------------------|
A-------------------------------------------------------|
E-------------------------------------------------------|


G             C
Love love me do
    G             C
You know I love you
     G            C
I'll always be true
            NC
So pleeeease  love me do


figure 1:
E--12h13--11h12--9h10-----------------------|
B----------------------8-8---8-8-8----------|
G-------------------------------------------|
D-------------------------------------------|
A-------------------------------------------|
E-------------------------------------------|


E---12h13--13--13--11h12--12--12--9h10---------------|
B---------------------------------------8-8---8-8-8--|
G----------------------------------------------------|
D----------------------------------------------------|
A----------------------------------------------------|
E----------------------------------------------------|


G             C
Love love me do
    G             C
You know I love you
     G            C
I'll always be true
            NC
So pleeeease  love me do


 (play figure 1 again)


   D                  C        G
   Someone to love    Somebody new
E--5---5---3--2-------3---1-0-----------|
B------------------------------3--------|
G---------------------------------------|
D---------------------------------------|
A---------------------------------------|
E---------------------------------------|

   D                  C            G
   Someone to love    Someone like you
E--5---5---3--2-------3---1---0---------|
B----------------------------------3----|
G---------------------------------------|
D---------------------------------------|
A---------------------------------------|
E---------------------------------------|


G             C
Love love me do
    G             C
You know I love you
     G            C
I'll always be true
            NC
So pleeeease  love me do

  (play figure 1 again)


E--5---5---3--2-------3---1-0-----------|
B------------------------------3--------|
G---------------------------------------|
D---------------------------------------|
A---------------------------------------|
E---------------------------------------|


E--5---5---3--2-------3---1---0---------|
B----------------------------------3----|
G---------------------------------------|
D---------------------------------------|
A---------------------------------------|
E---------------------------------------|


E---3--3--3---3-3-3-3--8-7/3---8-8-8---8--|
B-----------------------------------------|
G-----------------------------------------|
D-----------------------------------------|
A-----------------------------------------|
E-----------------------------------------|


G             C
Love love me do
    G             C
You know I love you
     G            C
I'll always be true
            NC
So pleeeease  love me do


(Fade out by playing intro a few times)


Chords used:

C  x32010
D  xx0232
G  320033
NC = no chord

Now that you have mastered that, try this if you have nothing else to do

E----8--10--12--10--8--10--10-----------|
B------------------------------10-------|
G---------------------------------------|
D---------------------------------------|
A---------------------------------------|
E---------------------------------------|


 ==========================================================================

 From Me To You


Intro
      C                Am
Da da da da da dum dum da
      C                Am
Da da da da da dum dum da

Verse 1
           C                  Am
If there's anything that you want,
           C                G7
If there's anyhting I can do,
      F7                  Am                 C        G7     C
Just call on me and I'll send it along with love from me to you

Verse 2 (Same Chords as Verse 1)
If there's anything that you want,
Like a heart that's oh, so true,
Just call on me and I'll send it along with love from me to you

Bridge
       Gm                 C7
I got arms that long to hold you
     F
and keep you by my side.
       D7
I got lips that long to kiss you
     G             G+
And keep you satisfied

(Repeat Verse 1)

Harmonica/Guitar Solo
C                 Am
                      From me
C
                      To you.
      F                   Am                  C         G G7     C C7
Just call on me and I'll send it along with love, from me  to you.
(Bridge, Verse 1)

Chords as used in this song.
     EADGBE
C-   X32010
Am-  X02210
G7-  320001
F7-  131231
C7-  x32310
Gm-  355333
F-   133211
D7-  xx0212
G-   355433
G+-  3X5443

guitar solo

------0-------------|
-1--3---3--1--3-3---|
------------------2-|
--------------------|
--------------------|
--------------------|


------0------5-5-3-|
-1--3---3--1-------|
-------------------|
-------------------|
-------------------|
-------------------|

==========================================================================
Thank You Girl

I find that the E and A right after the Amaj7 come out closer if you omit
the E string from each. No special tunings

D   D7
D   D7
Oh, oh,

A      E       A
you be good to me
E           Amaj7     E        A
You make me glad when I was blue
A     E     A
And eternally
E           Amaj7 E          A
I'll always be in love with you.
      D         A7
And all I gotta do
   D               E
Is thank you girl, thank you girl.


A     E        A
I can tell the world
E        Amaj7 E         A
A thing or two about our love
A    E         A
And, oh little girl,
E      Amaj7      E        A
Only a fool would doubt our love.
      D         A7
And all I gotta do
   D               E
Is thank you girl, thank you girl.

D
Thank you girl for
A
Loving me the
E
Way that you do
E
Way that you do
E7
That's the kind of
D7
Love that seems too
A7
Good to be true.
      D         A7
And all I gotta do
   D               E
Is thank you girl, thank you girl.


D     D7

D   D7
Oh, oh,

A      E       A
you be good to me
E           Amaj7     E        A
You make me glad when I was blue
A     E     A
And eternally
E           Amaj7 E          A
I'll always be in love with you.
      D         A7
And all I gotta do
   D               E
Is thank you girl, thank you girl.

D   D7

D   D7  A  D  A  D
Oh, oh, oh.
D   D7  A  D  A  D
Oh, oh, oh.
D   D7  A  D  A  D  A
Oh, oh, oh.


==========================================================================

SHE LOVES YOU


Note: The "yeah, yeah, yeah" phrase is a simple G-> F#-> E (these are notes,
      not chords).  It gets interesting at the end of each chorus when
      the run goes G-> F#-> E-> D and the E AND the D notes get held out.
      This creates that cool dissonance.  The dissonace is all in the
      vocals, but I'm writing it here as a G6 chord for the guitar (see
      below for fingering).  I just want you to be aware that the
      Beatles are not playing this chord on their instruments (they are
      playing a regular G chord).

      Em                                         riff 1:
She loves you, yeah, yeah, yeah.              |--------------------------|
      A                                       |--------------------------|
She loves you, yeah, yeah, yeah.              |-3-----3--5b(6)5--3-----3-|
      C                         *G6* [riff 1] |-3--5--3--5b(6)5--3--5--3-|
She loves you, yeah, yeah, yeah, yeah.        |----5----------------5----|
                                              |--------------------------|
      G                     E
You think you've lost your love,
       Bm             D
Well I saw her yesterday.
      G                 Em
It's you she's thinking of
         Bm              D
And she told me what to say.

              G                               riff 2:
She said she loves you                     |--3---2---0--|
                            Em  [riff 2]   |--0---0---0--|
And you know that can't be bad.            |--0---0---0--|
         Cm                                |--2---2---2--|
Yes she loves you                          |-------------|
                            D    [riff 1]  |-------------|
And you know you should be glad.

     G                Em
She said you hurt her so,
     Bm              D
She almost lost her mind.
     G                Em
But now she said she knows
       Bm                D
You're not the hurting kind.


              G
She said she loves you
                            Em  [riff 2]
And you know that can't be bad.
         Cm
Yes she loves you
                            D
And you know you should be glad.  Oooh.

      Em
She loves you, yeah, yeah, yeah.
      A
She loves you, yeah, yeah, yeah.
        Cm
With a love like that,
     D                   G   [riff 1]
You know you should be glad.

     G             Em
You know its up to you,
   Bm              D
I think it's only fair.
   G               Em
Pride can hurt you too,
  Bm          D
Apologize to her.

              G
Because she loves you
                            Em   [riff 2]
And you know that can't be bad.
     Cm
She loves you
                            D
And you know you should be glad. Oooh.

      Em
She loves you, yeah, yeah, yeah.
      A
She loves you, yeah, yeah, yeah.
        Cm
With a love like that,                         |------------------|
      D                  G    Em  [riff 3]     |------------------|
You know you should be glad                    |------------------|
        Cm                                     |-----0------------|
With a love like that,                         |------------------|
     D                   G   Em   [riff 3]     |--3------2-----0--|
You know you should be glad.
        Cm
With a love like that,
     D7                     G  [riff 2]
You know you should--  be glad!
 Em
      Yeah, yeah, yeah.
  C                      G6
      Yeah, yeah, yeah, yeah.

"G6"
  -0-
  -3-
  -0-
  -0-
  -2-
  -3-


==========================================================================
                       I"LL GET YOU


        Db         Ab      Db       Ab
    Oh yeah,  oh yeah, oh yeah, oh yeah.
      Db                              Gb            Ab7
    Imagine I'm in love with you it's easy 'cause I know;
           Db             Bm
    I've imagined I'm in love with you
     Gb                      Ab
    many, many, many times before.
              Db           Abm            Db
    I'ts not like me to pretend, but I'll get you.
                         Bbm
    I'll get you in the end;
            Gb                        Ab7
    Yes, I will, I'll get you in the end.


    (same as first verse)

        Db         Ab      Db       Ab
    Oh yeah,  oh yeah, oh yeah, oh yeah.
    I think about you night and day.
    I need you and it's true;
    When I think about you I can say
    I'm never, never, never never blue.
    So I'm telling you, my friend,
    That I'll get you, I'll get you in the end;
    Yes, I will, I'll get you in the end.


    (break):

                     Gb
     Well, there's gonna be a time
                Db
     When I'm gonna change your mind.
             Eb7                             Ab7
     So you might as well resign yourself to me. Oh yeah.

     (back to first verse)


     For the ending of this song , the Fab four go from Db To Ab
     over and over played against the Oh yeah, Oh yeah's.


==========================================================================
                         I Want To Hold Your Hand


Intro  *Guitar 1 plays Chords above Tab, Guitar 2 plays Tab.
    C*        D*          C*         D*       C*
E|------------|-------------------|----------------------|
B|------------|---3---------------|--3-------------------|
G|------0-----|---2---2------0----|--2----2--------0-----|
D|---2-----0--|---0---0---2-----0-|--0----0----2-------0-|
A|------------|-------------------|----------------------|
E|------------|-------------------|----------------------|
  D5 D6 D5  D6 D5   D6 D5 D6
E|------------|-------------------|
B|------------|-------------------|
G|------------|---5b--------------|
D|------------|-------------------|
A|------------|-------------------|
E|------------|-------------------|
                        Oh Yeah

Verse 1 *You can play the Power Chords,
when noted or play the Normal Chords.

G5   G6 G5       D5      D6 D5   Gtr Riff 1(Bottom)
I'll    tell you something
E5                   B7
I think you'll understand.
   G5 G6 G5      D5  D6  D5   Gtr Fill 1
When I  say that something.
E5                    B7
I wanna hold your hand

Chorus
C        D         G      Em
I wanna hold your hand.
C        D         G
I wanna hold your hand.

Verse 2
Oh please say to me you'll let me be your man.
And please say to me you'll let me hold your hand.

(Repeat Chorus)

Bridge
Dm           G                 C       Am
And when I touch you I feel happy inside.
Dm            G               C
It's such a feeling that my love,
         D*    C*       D*   C*       D*  D5 D6 D5 D6 D5
I can't hide,  I can't hide, I can't hide.

Verse 3
Yeah you got that somethin', I think you'll understand.
When I say that something.  I wanna hold your hand.

(Repeat Chorus)
(Repeat Bridge)

Verse 4
Yeah you got that somethin', I think you'll understand.
When I feel that something.  I wanna hold your hand.

Outro Chorus
C        D         G      Em
I wanna hold your hand.
C        D         B7
I wanna hold your hand.

C        D         C     (Gtr Outro Riff 2)   G
I wanna hold your hand.

Guitar Riff 1
E|----------------------------|
B|---------------5b-----------|
G|----------------------------|
D|----------------------------|
A|---5----4----5----6----7----|
E|----------------------------|


Guitar Outro Riff 2
E|-------------------------3---------|
B|-------------------------0---------|
G|-------------------------0---------|
D|----2--0-------2---0-----0---------|
A|-3----------3------------2---------|
E|-------------------------3---------|

Chords as used in this song.
    EADGBE
C*- X3555X
D*- X5777X
D5- X57XXX
D6- X58XXX
G5- 35XXXX
G6- 36XXXX
E5- 022XXX
B7- X21202
C-  X32010
D-  XX0232
G-  320001
Em- 022000

==========================================================================


This Boy

No special tunings
Chords:
D    x00232
Bm   x24432
A7   X02020
G    355433
A6   X02222

A6 A6 A6
D Bm G A
D Bm G A

D       Bm  G       A7     D  Bm
That boy    took my love away.
G               A7         D  Bm
Though he'll regret it someday,
G        A6             D  Bm G A
This boy wants you back again.


D       Bm  G     A7       D  Bm
That boy    isn't good for you.
G             A7        D  Bm
Though he may want you, too,
G        A6             D  Bm D7=20
This boy wants you back again.

D7      G                 F#m
Oh, and this boy would be happy
Bm                       D
Just to love you, but oh my-y-y-y
G                 F#m
That boy won't be happy=20
A7                 A6
'Til he's seen you cry-y-y-oh

D    Bm G         A7       D  Bm
This boy wouldn't mind the pain,
G            A7       D  Bm
Would always feel the same,
     G        A6            D  Bm G A
'Til this boy gets you back again.

D
This boy  =20
D
This boy
D
This boy...


----------------------------------------------------------

No special tunings
Chords:
D    x00232
Bm   x24432
A7   X02020
G    355433
A6   X02222

A6 A6 A6
D Bm G A
D Bm G A

D       Bm  G       A7     D  Bm
That boy    took my love away.
G               A7         D  Bm
Though he'll regret it someday,
G        A6             D  Bm G A
This boy wants you back again.


D       Bm  G     A7       D  Bm
That boy    isn't good for you.
G             A7        D  Bm
Though he may want you, too,
G        A6             D  Bm D7
This boy wants you back again.

D7      G                 F#m
Oh, and this boy would be happy
Bm                       D
Just to love you, but oh my-y-y-y
G                 F#m
That boy won't be happy
A7                 A6
'Til he's seen you cry-y-y-oh

D    Bm G         A7       D  Bm
This boy wouldn't mind the pain,
G            A7       D  Bm
Would always feel the same,
     G        A6            D  Bm G A
'Til this boy gets you back again.

D
This boy
D
This boy
D
This boy...


==========================================================================
Komm Gib Mir Deine Hand


[F]   [F#]   [G]      [F]   [F#]   [G]      [F]   [F#]   [G]    [G7]
Oh [C]komm doch, komm zu [G]mir
\[Am]Du nimmst mir den Ver[Em]stand
Oh [C]komm doch, komm zu [G]mir
\[Am]Komm, gib mir deine [Em]Hand!
\[F]Komm, gib mir [G]deine [C]Hand,[Am]
\[F]Komm, gib mir [G]deine [C]Hand.

Oh du bist so sch
Добавлено: 08.09.2013
Другие материалы по этой песне:
  • Аккорды и текст

Страница создана 08.09.2013
http://primanota.ru/beatles/past-masters-vol-1-chords.htm
Привет, Гость.
Предлагаем пройти революционный курс по гитаре.
Подарок от PrimaNota.Ru, забирай!