PrimaNota.ru - самый крупный в мире бесплатный архив песенных текстов, аккордов, табулатур и нот


Beatles - Get Back Naked - таба, бас-таба, видео

Регистрация Запомнить меня
Войти через:  Facebook Google Twitter Vk Yandex Mail.ru

Beatles - Get Back Naked - таба, бас-таба, видео

Печатать
Просмотров: 114
GET BACK

As recorded by The Beatles
(From the 1970 Album LET IT BE... NAKED)

Words and Music by John Lennon & Paul McCartney

Transcribed by Slowhand


Gtr I (E A D G B E) - 'George Harrison - Electric Guitar '
Gtr II (E A D G B E) - 'John Lennon - Electric Guitar '
Gtr III (E A D G B E) - 'Billy Preston - Electric Piano'


 Intro
  Q=124
  A
 4/4
  Gtr I (El. Gtr.)
  E E E E E E E E   E E E E E E E E
|-x-0-x-0-x-0-x-0-|-x-0-x-0-x-0-x-0-|
|-x-2-x-2-x-2-x-2-|-x-2-x-2-x-2-x-2-|
|-x-2-x-2-x-2-x-2-|-x-2-x-2-x-2-x-2-|
|-x-2-x-2-x-2-x-2-|-x-2-x-2-x-2-x-2-|
|-x-0-x-0-x-0-x-0-|-x-0-x-0-x-0-x-0-|
|-----------------|-----------------|
|
| Gtr II (El. Gtr.)
|       PM------------------------|
| Q   E E E E E E   E E E E E E E E
|-----------------|-----------------|
|-----------------|-----------------|
|-----------------|-----------------|
|-----------------|-----------------|
|-------7-7-7-7-7-|-7-7-7-7-7-7-7-7-|
|-------5-5-5-5-5-|-5-5-5-5-5-5-5-5-|


                                     1st Verse
                            G  D      A
  E E E E E E E E   E E E E Q  Q      E E E E E E E E
|-x-0-x-0-x-0-x-0-|-x-0-x-0-3--2---||-x-0-x-0-x-0-x-0-|
|-x-2-x-2-x-2-x-2-|-x-2-x-2-0--3---||-x-2-x-2-x-2-x-2-|
|-x-2-x-2-x-2-x-2-|-x-2-x-2-0--2---||-x-2-x-2-x-2-x-2-|
|-x-2-x-2-x-2-x-2-|-x-2-x-2-0--0---||-x-2-x-2-x-2-x-2-|
|-x-0-x-0-x-0-x-0-|-x-0-x-0-2------||-x-0-x-0-x-0-x-0-|
|-----------------|---------3------||-----------------|
|
| PM---------------------------|      PM------------|
| E E E E E E E E   E E Q   Q  E E    E E E E E E E E
|-----------------|----------------||-----------------|
|-----------------|----------------||-----------------|
|-----------------|----------------||-----------------|
|-----------------|------------7---||-----------------|
|-7-7-7-7-7-7-7-7-|-7-7-7---5--5---||-7---9---7---9---|
|-5-5-5-5-5-5-5-5-|-5-5-5---3----0h||=5-5-5-5-5-5-5-5-|


                 D
  E E E E E E E  E    E  E  E  E  E  E  E E
|-x-0-x-0-x-0-x--2-|--x--2--x--2--x--2--x-2-|
|-x-2-x-2-x-2-x--3-|--x--3--x--3--x--3--x-3-|
|-x-2-x-2-x-2-x--2-|--x--2--x--2--x--2--x-2-|
|-x-2-x-2-x-2-x--0-|--x--0--x--0--x--0--x-0-|
|-x-0-x-0-x-0-x----|------------------------|
|------------------|------------------------|
|
| PM-----------------------------------|
| E E E E E E Q       E  E  E  E  E  E  Q
|------------------|------------------------|
|------------------|------------------------|
|------------------|------------------------|
|-------------5/---|------------------------|
|-7---9---7---7/---|-12----14----12----12---|
|-5-5-5-5-5-5-5/---|-10-10-10-10-10-10-10---|


    A
     E  E  E          E  E           E  E E
|----x--0--x----------0--x-----------0--x-0-|
|----x--2--x----------2--x-----------2--x-2-|
|----x--2--x----------2--x-----------2--x-2-|
|----x--2--x----------2--x-----------2--x-2-|
|----x--0--x----------0--x-----------0--x-0-|
|-------------------------------------------|
|
| a  E  E  S     +S   E  S      +S   E  q
|--------------------12---------------------|
|------10-12b14-(12)----12pb14r(12)-10------|
|-9s11---------------------------------11---|
|-------------------------------------------|
|-------------------------------------------|
|-------------------------------------------|


                                   D
  E E E E E E E E   E E E E E E E  E    E  E  E  E  E  E  E E
|-x-0-x-0-x-0-x-0-|-x-0-x-0-x-0-x--2-|--x--2--x--2--x--2--x-2-|
|-x-2-x-2-x-2-x-2-|-x-2-x-2-x-2-x--3-|--x--3--x--3--x--3--x-3-|
|-x-2-x-2-x-2-x-2-|-x-2-x-2-x-2-x--2-|--x--2--x--2--x--2--x-2-|
|-x-2-x-2-x-2-x-2-|-x-2-x-2-x-2-x--0-|--x--0--x--0--x--0--x-0-|
|-x-0-x-0-x-0-x-0-|-x-0-x-0-x-0-x----|------------------------|
|-----------------|------------------|------------------------|
|
|   PM------------------------------------------------------|
| E E E E E E E E   E E E E q   Q       E  E  E  E  E  E  E E
|-----------------|------------------|------------------------|
|-----------------|------------------|------------------------|
|-----------------|------------------|------------------------|
|-----------------|------------------|------------------------|
|-----9---7---9---|-7---9---7--------|-12----14----12----14---|
|---0-5-5-5-5-5-5-|-5-5-5-5-5---5/---|-10-10-10-10-10-10-10-0-|


    A
     E  E  E          E  E           E  E E
|----x--0--x----------0--x-----------0--x-0-||
|----x--2--x----------2--x-----------2--x-2-||
|----x--2--x----------2--x-----------2--x-2-||
|----x--2--x----------2--x-----------2--x-2-||
|----x--0--x----------0--x-----------0--x-0-||
|-------------------------------------------||
|
| a  E  E  S     +S   E  S      +S   E  E E
|--------------------12---------------------||
|------10-12b14-(12)----12pb14r(12)-10------||
|-9s11---------------------------------11-9-||
|-------------------------------------------||
|-------------------------------------------||
|-------------------------------------------||


 Chorus
    A
    E E E E  E  E   E   E     E E E E  E  E   E   E
|---x-0-x-0--x--0---x---0-|---x-0-x-0--x--0---x---0--|
|---x-2-x-2--x--2---x---2-|---x-2-x-2--x--2---x---2--|
|---x-2-x-2--x--2---x---2-|---x-2-x-2--x--2---x---2--|
|---x-2-x-2--x--2---x---2-|---x-2-x-2--x--2---x---2--|
|---x-0-x-0--x--0---x---0-|---x-0-x-0--x--0---x---0--|
|-------------------------|--------------------------|
|
| a E E E E +E  S S S S E   a E E E E +E  S S S S E
|---------------9-9-9-9-9-|---------------9-9-9-9-9--|
|---------------8-8-8-8-8-|---------------8-8-8-8-8--|
|---------------9-9-9-9-9-|---------------9-9-9-9-9--|
|---------7-(7)-----------|---------7-(7)------------|
|-----7-9-----------------|-----7-9------------------|
|-7s9---------------------|-7s9----------------------|


  D                           A       G       D         A7
    E E E E  E  E   E   E     E E E E  Q      Q         E E E E +H
|---x-2-x-2--x--2---x---2-|---x-0-x-0--3------2-----|---x-0-x-0-(0)------------|
|---x-3-x-3--x--3---x---3-|---x-2-x-2--0------3-----|---x-2-x-2-(2)------------|
|---x-2-x-2--x--2---x---2-|---x-2-x-2--0------2-----|---x-0-x-0-(0)------------|
|---x-0-x-0--x--0---x---0-|---x-2-x-2--0------0-----|---x-2-x-2-(2)------------|
|-------------------------|---x-0-x-0--2------------|---x-0-x-0-(0)------------|
|-------------------------|------------3------------|--------------------------|
|
| a E E E E +E  S S S S E   a E E E E +E  S S S S E   a E E E E +E  S S S S E
|---------------8-8-8-8-8-|---------------9-9-9-9-9-|---------------9-9-9-9-9--|
|---------------7-7-7-7-7-|---------------8-8-8-8-8-|---------------8-8-8-8-8--|
|---------------7-7-7-7-7-|---------------9-9-9-9-9-|---------------9-9-9-9-9--|
|---------7-(7)-----------|---------7-(7)-----------|---------7-(7)------------|
|-----7-9-----------------|-----7-9-----------------|-----7-9------------------|
|-7s9---------------------|-7s9---------------------|-7s9----------------------|


                              D                         A
    E E E E +H                E E E E  E  E   E   E     E E E E  E  E E E
|---x-0-x-0-(0)-----------|---x-2-x-2--x--2---x---2-|---x-0-x-0--x--0-x-0--||
|---x-2-x-2-(2)-----------|---x-3-x-3--x--3---x---3-|---x-2-x-2--x--2-x-2--||
|---x-0-x-0-(0)-----------|---x-2-x-2--x--2---x---2-|---x-2-x-2--x--2-x-2--||
|---x-2-x-2-(2)-----------|---x-0-x-0--x--0---x---0-|---x-2-x-2--x--2-x-2--||
|---x-0-x-0-(0)-----------|-------------------------|---x-0-x-0--x--0-x-0--||
|-------------------------|-------------------------|----------------------||
|
| a E E E E +E  S S S S E   a E E E E +E  S S S S E   a E E E E +Q    Q
|---------------9-9-9-9-9-|---------------8-8-8-8-8-|----------------------||
|---------------8-8-8-8-8-|---------------7-7-7-7-7-|----------------------||
|---------------9-9-9-9-9-|---------------7-7-7-7-7-|----------------------||
|---------7-(7)-----------|---------7-(7)-----------|---------7-(7)--------||
|-----7-9-----------------|-----7-9-----------------|-----7-9--------------||
|-7s9---------------------|-7s9---------------------|-7s9------------------||


 Guitar Solo 1
    A
     Q     Q     Q   Q
|----x-----x-----x---x-------|
|----x-----x-----x---x-------|
|----x-----x-----x---x-------|
|----x-----x-----x---x-------|
|----x-----x-----x---x-------|
|----------------------------|
|
|                ~~
| a  E  E  E  E  Q   E  E
|----------------------------|
|------10-10-10-10--12-12b14-|
|-9s11-----------------------|
|----------------------------|
|----------------------------|
|----------------------------|


                                      D
    Q     Q          Q      Q         Q   Q    Q        Q
|---x-----x----------x------x-----|---x---x----x--------x---|
|---x-----x----------x------x-----|---x---x----x--------x---|
|---x-----x----------x------x-----|---x---x----x--------x---|
|---x-----x----------x------x-----|---x---x----x--------x---|
|---x-----x----------x------x-----|-------------------------|
|---------------------------------|-------------------------|
|
|  +E   Q    E      +E   E  E  E    a E E E E +E      E E E
|------12-------------------------|-------------------------|
|-(12)------12pb14r(12)-10----10\-|-------------------------|
|--------------------------11-----|---------7-(7)b7.5-5---5-|
|---------------------------------|-----7-9-------------7---|
|---------------------------------|-7s9---------------------|
|---------------------------------|-------------------------|


  A         G    D      A
   Q     Q   Q   Q       Q       Q    Q     Q
|--x-----x---3---2--|----x-------x----x-----x--|
|--x-----x---0---3--|----x-------x----x-----x--|
|--x-----x---0---2--|----x-------x----x-----x--|
|--x-----x---0---0--|----x-------x----x-----x--|
|--x-----x---2------|----x-------x----x-----x--|
|------------3------|--------------------------|
|
| +H        +Q   Q    a  S  e  S E  E E  E  q
|-------------------|--------------------------|
|-------------------|------10-10---10---10-12--|
|-(5)b6-----(5)-----|-9s11---------------------|
|-------------------|--------------------------|
|-------------------|--------------------------|
|-------------------|--------------------------|


   Q       Q          Q      Q
|--x-------x----------x------x-----|
|--x-------x----------x------x-----|
|--x-------x----------x------x-----|
|--x-------x----------x------x-----|
|--x-------x----------x------x-----|
|----------------------------------|
|
|  E     Q    E      +E   E  E  E
|-------12-------------------------|
|-12b14------12pb14r(12)-10----10\-|
|---------------------------11-----|
|----------------------------------|
|----------------------------------|
|----------------------------------|


  D
    Q   Q    Q        Q
|---x---x----x--------x---|
|---x---x----x--------x---|
|---x---x----x--------x---|
|---x---x----x--------x---|
|-------------------------|
|-------------------------|
|
| a E E E E +E      E E E
|-------------------------|
|-------------------------|
|---------7-(7)b7.5-5---5-|
|-----7-9-------------7---|
|-7s9---------------------|
|-------------------------|


                                            Chorus
  A                     G         D          A
   Q          Q         Q         Q          E E E E E E E E
|--x----------x---------3---------2-------||-x-0-x-0-x-0-x-0-|
|--x----------x---------0---------3-------||-x-2-x-2-x-2-x-2-|
|--x----------x---------0---------2-------||-x-2-x-2-x-2-x-2-|
|--x----------x---------0---------0-------||-x-2-x-2-x-2-x-2-|
|--x----------x---------2-----------------||-x-0-x-0-x-0-x-0-|
|-----------------------3-----------------||-----------------|
|
|                                            PM------------|
| +E      E   S S E     E     S S E     E    E E E E E E E E
|-----------------------------------------||-----------------|
|-------------5---------5b5.5-------------||-----------------|
|-(5)b5.5-7b8-----5b5.5-------5---5b5.5---||-----------------|
|---------------7---------------7---------||-----------------|
|-----------------------------------------||-7---9---7---9---|
|---------------------------------------0h||=5-5-5-5-5-5-5-5-|


                     D                        A       G   D
  E E E E E E E  E    E  E  E  E  E  E  E E   E E E E Q   Q
|-x-0-x-0-x-0-x--0-|--x--2--x--2--x--2--x-2-|-x-0-x-0-3---2---|
|-x-2-x-2-x-2-x--2-|--x--3--x--3--x--3--x-3-|-x-2-x-2-0---3---|
|-x-2-x-2-x-2-x--2-|--x--2--x--2--x--2--x-2-|-x-2-x-2-0---2---|
|-x-2-x-2-x-2-x--2-|--x--0--x--0--x--0--x-0-|-x-2-x-2-0---0---|
|-x-0-x-0-x-0-x--0-|------------------------|-x-0-x-0-2-------|
|------------------|------------------------|---------3-------|
|
| PM--------------------------------------------------------|
| E E E E E E Q       E  E  E  E  E  E  E E   E E E E E E E E
|------------------|------------------------|-----------------|
|------------------|------------------------|-----------------|
|------------------|------------------------|-----------------|
|------------------|------------------------|-----------------|
|-7---9---7---7/---|-12----14----12----12---|-7---9---7---9---|
|-5-5-5-5-5-5-5/---|-10-10-10-10-10-10-10-x-|-5-5-5-5-5-5-5-5-|


  A7                                      D
  E E E E +H          E E E E +H          E E E E E E E E   +W
|-x-0-x-0-(0)-------|-x-0-x-0-(0)-------|-x-2-x-2-x-2-x-2-|-(2)----|
|-x-2-x-2-(2)-------|-x-2-x-2-(2)-------|-x-3-x-3-x-3-x-3-|-(3)----|
|-x-0-x-0-(0)-------|-x-0-x-0-(0)-------|-x-2-x-2-x-2-x-2-|-(2)----|
|-x-2-x-2-(2)-------|-x-2-x-2-(2)-------|-x-0-x-0-x-0-x-0-|-(0)----|
|-x-0-x-0-(0)-------|-x-0-x-0-(0)-------|-----------------|--------|
|-------------------|-------------------|-----------------|--------|
|
| PM----------------------------------------------|
| E E E E  E  E E E   E E E E  E  E E E   E E E E E E E E   +W
|-------------------|-------------------|-----------------|--------|
|-------------------|-------------------|-----------------|--------|
|-------------------|-------------------|-----------------|--------|
|-------------------|-------------------|-------------5-7-|-(7)----|
|-7---9----7----9---|-7---9----7----9---|-7---9---7---3-5-|-(5)----|
|-5-5-5-5--5--5-5-5-|-5-5-5-5--5--5-5-5-|-5-5-5-5-5-------|--------|


                El. Piano Solo
  N.C.           A
  +H     H       E E E E E E E E   E E E E E E E  E
|-(2)---------||-x-0-x-0-x-0-x-0-|-x-0-x-0-x-0-x--0-|
|-(3)---------||-x-2-x-2-x-2-x-2-|-x-2-x-2-x-2-x--2-|
|-(2)---------||-x-2-x-2-x-2-x-2-|-x-2-x-2-x-2-x--2-|
|-(0)---------||-x-2-x-2-x-2-x-2-|-x-2-x-2-x-2-x--2-|
|-------------||-x-0-x-0-x-0-x-0-|-x-0-x-0-x-0-x--0-|
|-------------||-----------------|------------------|
|
|                PM--------------------------|
| +H     H       E E E E E E E E   E E E E E E Q
|-------------||-----------------|------------------|
|-------------||-----------------|------------------|
|-------------||-----------------|------------------|
|-(7)---------||-----------------|------------------|
|-(5)---------||-7---9---7---9---|-7---9---7---7/---|
|-------------||-5-5-5-5-5-5-5-5-|-5-5-5-5-5-5-5/---|


  D                            A       G       D       A
   E  E  E  E  E  E  E  E      E E E E  Q      Q       E E E E E E E E
|--x--2--x--2--x--2--x--2--|---x-0-x-0--3------2-----|-x-0-x-0-x-0-x-0-|
|--x--3--x--3--x--3--x--3--|---x-2-x-2--0------3-----|-x-2-x-2-x-2-x-2-|
|--x--2--x--2--x--2--x--2--|---x-2-x-2--0------2-----|-x-2-x-2-x-2-x-2-|
|--x--0--x--0--x--0--x--0--|---x-2-x-2--0------0-----|-x-2-x-2-x-2-x-2-|
|--------------------------|---x-0-x-0--2------------|-x-0-x-0-x-0-x-0-|
|--------------------------|------------3------------|-----------------|
|
|  PM------------------|                               PM------------|
|  E  E  E  E  E  E  E  E    a E E E E +E  S S S S E   E E E E E E E E
|--------------------------|---------------9-9-9-9-9-|-----------------|
|--------------------------|---------------8-8-8-8-8-|-----------------|
|--------------------------|---------------9-9-9-9-9-|-----------------|
|--------------------------|---------7-(7)-----------|-----------------|
|-12----14----12----14-----|-----7-9-----------------|-7---9---7---9---|
|-10-10-10-10-10-10-10-10\-|-7s9---------------------|-5-5-5-5-5-5-5-5-|


                     D                            A       G       D
  E E E E E E E  E    E  E  E  E  E  E  E  E      E E E E  Q      Q
|-x-0-x-0-x-0-x--0-|--x--2--x--2--x--2--x--2--|---x-0-x-0--3------2-----||
|-x-2-x-2-x-2-x--2-|--x--3--x--3--x--3--x--3--|---x-2-x-2--0------3-----||
|-x-2-x-2-x-2-x--2-|--x--2--x--2--x--2--x--2--|---x-2-x-2--0------2-----||
|-x-2-x-2-x-2-x--2-|--x--0--x--0--x--0--x--0--|---x-2-x-2--0------0-----||
|-x-0-x-0-x-0-x--0-|--------------------------|---x-0-x-0--2------------||
|------------------|--------------------------|------------3------------||
|
| PM--------|         PM------------------|
| E E E E E E Q       E  E  E  E  E  E  E  E    a E E E E +E  S S S S E
|------------------|--------------------------|---------------9-9-9-9-9-||
|------------------|--------------------------|---------------8-8-8-8-8-||
|------------------|--------------------------|---------------9-9-9-9-9-||
|------------------|--------------------------|---------7-(7)-----------||
|-7---9---7---7/---|-12----14----12----14-----|-----7-9-----------------||
|-5-5-5-5-5-5-5/---|-10-10-10-10-10-10-10-10\-|-7s9---------------------||


 2nd Verse
  A                                D
  E E E E E E E E   E E E E E E E  E    E  E  E  E  E  E  E E
|-x-0-x-0-x-0-x-0-|-x-0-x-0-x-0-x--2-|--x--2--x--2--x--2--x-2-|
|-x-2-x-2-x-2-x-2-|-x-2-x-2-x-2-x--3-|--x--3--x--3--x--3--x-3-|
|-x-2-x-2-x-2-x-2-|-x-2-x-2-x-2-x--2-|--x--2--x--2--x--2--x-2-|
|-x-2-x-2-x-2-x-2-|-x-2-x-2-x-2-x--0-|--x--0--x--0--x--0--x-0-|
|-x-0-x-0-x-0-x-0-|-x-0-x-0-x-0-x----|------------------------|
|-----------------|------------------|------------------------|
|
| PM-----------------------------------------------------|
| E E E E E E E E   E E E E E E Q       E  E  E  E  E  E  Q
|-----------------|------------------|------------------------|
|-----------------|------------------|------------------------|
|-----------------|------------------|------------------------|
|-----------------|-------------5/---|------------------------|
|-7---9---7---9---|-7---9---7---7/---|-12----14----12----12---|
|-5-5-5-5-5-5-5-5-|-5-5-5-5-5-5-5/---|-10-10-10-10-10-10-10---|


  A
     E  E  E          E  E           E  E E
|----x--0--x----------0--x-----------0--x-0-|
|----x--2--x----------2--x-----------2--x-2-|
|----x--2--x----------2--x-----------2--x-2-|
|----x--2--x----------2--x-----------2--x-2-|
|----x--0--x----------0--x-----------0--x-0-|
|-------------------------------------------|
|
| a  E  E  S     +S   E  S      +S   E  q
|--------------------12---------------------|
|------10-12b13-(12)----12pb13r(12)-10------|
|-9s11---------------------------------11---|
|-------------------------------------------|
|-------------------------------------------|
|-------------------------------------------|


  E E E E E E E E   E E E E E E E  E
|-x-0-x-0-x-0-x-0-|-x-0-x-0-x-0-x--0-|
|-x-2-x-2-x-2-x-2-|-x-2-x-2-x-2-x--2-|
|-x-2-x-2-x-2-x-2-|-x-2-x-2-x-2-x--2-|
|-x-2-x-2-x-2-x-2-|-x-2-x-2-x-2-x--2-|
|-x-0-x-0-x-0-x-0-|-x-0-x-0-x-0-x--0-|
|-----------------|------------------|
|
|   PM--------------------------|
| E E E E E E E E   E E E E E E Q
|-----------------|------------------|
|-----------------|------------------|
|-----------------|------------------|
|-----------------|------------------|
|-----9---7---9---|-7---9---7---7/---|
|---0-5-5-5-5-5-5-|-5-5-5-5-5-5-5/---|


  D                       A               G
   E  E  E  E  E  E E E   E E   E   E     H
|--x--2--x--2--x--2-x-2-|-x-0---x---0-----3-------------||
|--x--3--x--3--x--3-x-3-|-x-2---x---2-----0-------------||
|--x--2--x--2--x--2-x-2-|-x-2---x---2-----0-------------||
|--x--0--x--0--x--0-x-0-|-x-2---x---2-----0-------------||
|-----------------------|-x-0---x---0-----2-------------||
|-----------------------|-----------------3-------------||
|
|  PM---------------|
|  E  E  E  E  E  E Q     E E   S S E     E     S S E E
|-----------------------|-------------------------------||
|-----------------------|---7b8-5---------5b5.5---------||
|-----------------------|-----------5b5.5-------5---5---||
|-----------------------|-7-------7---------------7---0-||
|-12----14----12--------|-------------------------------||
|-10-10-10-10-10-10-0---|-------------------------------||


 Chorus
    A
    E E E E +H
|---x-0-x-0-(0)-----------|
|---x-2-x-2-(2)-----------|
|---x-2-x-2-(2)-----------|
|---x-2-x-2-(2)-----------|
|---x-0-x-0-(0)-----------|
|-------------------------|
|
| a E E E E +E  S S S S E
|---------------9-9-9-9-9-|
|---------------8-8-8-8-8-|
|---------------9-9-9-9-9-|
|---------7-(7)-----------|
|-----7-9-----------------|
|-7s9---------------------|


                              D                         A       G       D
    E E E E  E  E   E   E     E E E E  E  E   E   E     E E E E  Q      Q
|---x-0-x-0--x--0---x---0-|---x-2-x-2--x--2---x---2-|---x-0-x-0--3------2------|
|---x-2-x-2--x--2---x---2-|---x-3-x-3--x--3---x---3-|---x-2-x-2--0------3------|
|---x-2-x-2--x--2---x---2-|---x-2-x-2--x--2---x---2-|---x-2-x-2--0------2------|
|---x-2-x-2--x--2---x---2-|---x-0-x-0--x--0---x---0-|---x-2-x-2--0------0------|
|---x-0-x-0--x--0---x---0-|-------------------------|---x-0-x-0--2-------------|
|-------------------------|-------------------------|------------3-------------|
|
| a E E E E +E  S S S S E   a E E E E +E  S S S S E   a E E E E +E  S S S S E
|---------------9-9-9-9-9-|---------------8-8-8-8-8-|---------------9-9-9-9-9--|
|---------------8-8-8-8-8-|---------------7-7-7-7-7-|---------------8-8-8-8-8--|
|---------------9-9-9-9-9-|---------------7-7-7-7-7-|---------------9-9-9-9-9--|
|---------7-(7)-----------|---------7-(7)-----------|---------7-(7)------------|
|-----7-9-----------------|-----7-9-----------------|-----7-9------------------|
|-7s9---------------------|-7s9---------------------|-7s9----------------------|


  A7                                                    D
    E E E E +H                E E E E +H                E E E E  E  E   E   E
|---0-0-0-0-(0)-----------|---0-0-0-0-(0)-----------|---2-2-x-2--2--x-------2--|
|---2-2-2-2-(2)-----------|---2-2-2-2-(2)-----------|---3-3-x-3--3--x-------3--|
|---0-0-0-0-(0)-----------|---0-0-0-0-(0)-----------|---2-2-x-2--2--x-------2--|
|---2-2-2-2-(2)-----------|---2-2-2-2-(2)-----------|---0-0-x-0--0--x-------0--|
|---0-0-0-0-(0)-----------|---0-0-0-0-(0)-----------|--------------------------|
|-------------------------|-------------------------|--------------------------|
|
| a E E E E +E  S S S S E   a E E E E +E  S S S S E   a E E E E +E  S S S S E
|---------------9-9-9-9-9-|---------------9-9-9-9-9-|---------------8-8-8-8-8--|
|---------------8-8-8-8-8-|---------------8-8-8-8-8-|---------------7-7-7-7-7--|
|---------------9-9-9-9-9-|---------------9-9-9-9-9-|---------------7-7-7-7-7--|
|---------7-(7)-----------|---------7-(7)-----------|---------7-(7)------------|
|-----7-9-----------------|-----7-9-----------------|-----7-9------------------|
|-7s9---------------------|-7s9---------------------|-7s9----------------------|


                            Guitar Solo 2
    A                          A
    E E E E  E  E   E   E       Q        Q       Q        Q
|---x-0-x-0--x--0---x---0-||----x--------x-------x--------x----|
|---x-2-x-2--x--2---x---2-||----x--------x-------x--------x----|
|---x-2-x-2--x--2---x---2-||----x--------x-------x--------x----|
|---x-2-x-2--x--2---x---2-||----x--------x-------x--------x----|
|---x-0-x-0--x--0---x---0-||----x--------x-------x--------x----|
|-------------------------||-----------------------------------|
|
| a E E E E +E  S S S S E    a  S  e  S  E  S  S S  S  E  E  E
|---------------8-8-8-8-8-||-----------------------------------|
|---------------7-7-7-7-7-||------10-10-10-10-10---10-10-12-12-|
|---------------7-7-7-7-7-||-9s11------------------------------|
|---------7-(7)-----------||-----------------------------------|
|-----7-9-----------------||-----------------------------------|
|-7s9---------------------||-----------------------------------|


   Q       Q          Q      Q
|--x-------x----------x------x------|
|--x-------x----------x------x------|
|--x-------x----------x------x------|
|--x-------x----------x------x------|
|--x-------x----------x------x------|
|-----------------------------------|
|
|  E     Q    E      +E   E  E  E
|-------12--------------------------|
|-12b14------12pb14r(12)-10----10\--|
|---------------------------11------|
|-----------------------------------|
|-----------------------------------|
|-----------------------------------|


    D                                             G         D
    Q   Q    Q        Q      Q          Q         Q         Q
|---x---x----x--------x---|--x----------x---------3---------2----|
|---x---x----x--------x---|--x----------x---------0---------3----|
|---x---x----x--------x---|--x----------x---------0---------2----|
|---x---x----x--------x---|--x----------x---------0---------0----|
|-------------------------|-----------------------2--------------|
|-------------------------|-----------------------3--------------|
|
| a E E E E +E      E E E   +E      E   S S E     E     S S E E
|-------------------------|--------------------------------------|
|-------------------------|---------7b8-5---------5b5.5----------|
|---------7-(7)b7.5-5---5-|-(5)b5.5---------5b5.5-------5---5-7/-|
|-----7-9-------------7---|---------------7---------------7------|
|-7s9---------------------|--------------------------------------|
|-------------------------|--------------------------------------|


    A
     Q     Q      Q      Q
|----x-----x------x------x-----|
|----x-----x------x------x-----|
|----x-----x------x------x-----|
|----x-----x------x------x-----|
|----x-----x------x------x-----|
|------------------------------|
|
| a  E  E  E  E  +E   E  E  E
|------------------------------|
|------10-10-10-(10)-10h12-12--|
|-9s11-------------------------|
|------------------------------|
|------------------------------|
|------------------------------|


  A                                  D
   Q     Q         Q      Q            Q       Q        Q        Q
|--x-----x---------x------x--------|---x-------x--------x--------x-------|
|--x-----x---------x------x--------|---x-------x--------x--------x-------|
|--x-----x---------x------x--------|---x-------x--------x--------x-------|
|--x-----x---------x------x--------|---x-------x--------x--------x-------|
|--x-----x---------x------x--------|-------------------------------------|
|----------------------------------|-------------------------------------|
|
|  Q.       E     +E   E  E  E        +E    E  E     E  E     E  E     E
|----------------------------------|-------------------------------------|
|-12b14----12b14r(12)-10----12b14==|=(12)r-10-12b14-10-12b14-10-12b14-10-|
|------------------------11--------|-------------------------------------|
|----------------------------------|-------------------------------------|
|----------------------------------|-------------------------------------|
|----------------------------------|-------------------------------------|


  A                     G              D
    E        E     E     E  Q           Q
|------------------------3--3-----------2----||
|---2--------2-----2-----0--0-----------3----||
|---2--------2-----2-----0--0-----------2----||
|---2--------2-----2-----0--0-----------0----||
|---0--------0-----0-----2--2----------------||
|------------------------3--3----------------||
|
|  +E        E     S  S  E  E     S  S  E  e
|--------------------------------------------||
|-(10)b10.5-12b14-10----10-12b14-10----10-12-||
|--------------------11-------------12-------||
|--------------------------------------------||
|--------------------------------------------||
|--------------------------------------------||


 Chorus
    A7                                                  D
    E E E E +Q      Q         E E E E +Q      Q         E E E E  E  E   E   E
|---0-0-0-0-(0)-----0-----|---0-0-0-0-(0)-----0-----|---x-2-x-2--x--2---x---2--|
|---2-2-2-2-(2)-----2-----|---2-2-2-2-(2)-----2-----|---x-3-x-3--x--3---x---3--|
|---0-0-0-0-(0)-----0-----|---0-0-0-0-(0)-----0-----|---x-2-x-2--x--2---x---2--|
|---2-2-2-2-(2)-----2-----|---2-2-2-2-(2)-----2-----|---x-0-x-0--x--0---x---0--|
|---0-0-0-0-(0)-----0-----|---0-0-0-0-(0)-----0-----|--------------------------|
|-------------------------|-------------------------|--------------------------|
|
| a E E E E +E  S S S S E   a E E E E +E  S S S S E   a E E E E +E  S S S S E
|---------------9-9-9-9-9-|---------------9-9-9-9-9-|---------------8-8-8-8-8--|
|---------------8-8-8-8-8-|---------------8-8-8-8-8-|---------------7-7-7-7-7--|
|---------------9-9-9-9-9-|---------------9-9-9-9-9-|---------------7-7-7-7-7--|
|---------7-(7)-----------|---------7-(7)-----------|---------7-(7)------------|
|-----7-9-----------------|-----7-9-----------------|-----7-9------------------|
|-7s9---------------------|-7s9---------------------|-7s9----------------------|


    A     G         D         A7
    E E E E +E  E   E   E     E E E E +Q      Q         E E E E +Q      Q
|---0-0-0-3-(3)-3---2---2-|---0-0-0-0-(0)-----0-----|---0-0-0-0-(0)-----0------|
|---2-2-2-0-(0)-0---3---3-|---2-2-2-2-(2)-----2-----|---2-2-2-2-(2)-----2------|
|---2-2-2-0-(0)-0---2---2-|---0-0-0-0-(0)-----0-----|---0-0-0-0-(0)-----0------|
|---2-2-2-0-(0)-0---0---0-|---2-2-2-2-(2)-----2-----|---2-2-2-2-(2)-----2------|
|---0-0-0-2-(2)-2---------|---0-0-0-0-(0)-----0-----|---0-0-0-0-(0)-----0------|
|---------3-(3)-3---------|-------------------------|--------------------------|
|
| a E E E E +E  S S S S E   a E E E E +E  S S S S E   a E E E E +E  S S S S E
|---------------9-9-9-9-9-|---------------9-9-9-9-9-|---------------9-9-9-9-9--|
|---------------8-8-8-8-8-|---------------8-8-8-8-8-|---------------8-8-8-8-8--|
|---------------9-9-9-9-9-|---------------9-9-9-9-9-|---------------9-9-9-9-9--|
|---------7-(7)-----------|---------7-(7)-----------|---------7-(7)------------|
|-----7-9-----------------|-----7-9-----------------|-----7-9------------------|
|-7s9---------------------|-7s9---------------------|-7s9----------------------|


  D                 C   D
    E E E E  E  E   E   E     +W                    +W           +W
|---x-2-x-2--x--2---0---2-|---(2)-----------------|------------|--------*|
|---x-3-x-3--x--3---1---3-|---(3)-----------------|-(3)--------|-(3)----*|
|---x-2-x-2--x--2---0---2-|---(2)-----------------|-(2)--------|-(2)----*|
|---x-0-x-0--x--0---2---0-|---(0)-----------------|-(0)--------|-(0)----*|
|-------------------3-----|-----------------------|------------|--------*|
|-------------------------|-----------------------|------------|--------*|
|
|                         Gtr III (El. Piano arr. for Gtr.)
| a E E E E +E  S S S S E   a  Q   E a E +E  E Q    +W           +W
|---------------8-8-8-8-8-|-----------------------|------------|--------*|
|---------------7-7-7-7-7-|--------7---------5-3--|-(3)--------|-(3)----*|
|---------------7-7-7-7-7-|--------------------5--|-(5)--------|-(5)----*|
|---------7-(7)-----------|-6h=7-----4h5-(5)---4--|-(4)--------|-(4)----*|
|-----7-9-----------------|-----------------------|------------|--------*|
|-7s9---------------------|-----------------------|------------|--------*|


Duration Legend
---------------
W - whole; H - half; Q - quarter; E - 8th; S - 16th; T - 32nd; X - 64th; a - acciaccatura
+ - note tied to previous; . - note dotted; .. - note double dotted
Uncapitalized letters represent notes that are staccato (1/2 duration)
Irregular groupings are notated above the duration line
Duration letters will always appear directly above the note/fret number it represents the
duration for.  Duration letters with no fret number below them represent rests.  Multi-
bar rests are notated in the form Wxn, where n is the number of bars to rest for.  Low
melody durations appear below the staff

Tablature Legend
----------------
 h   - hammer-on
 p   - pull-off
 b   - bend
 pb  - pre-bend
 r   - bend release (if no number after the r, then release immediately)
 /\  - slide into or out of (from/to "nowhere")
 s   - legato slide
 S   - shift slide
  - natural harmonic
[n]  - artificial harmonic
n(n) - tapped harmonic
 ~   - vibrato
 tr  - trill
 T   - tap
 TP  - trem. picking
 PM  - palm muting
\n/  - tremolo bar dip; n = amount to dip
 \n  - tremolo bar down
 n/  - tremolo bar up
/n\  - tremolo bar inverted dip
 =   - hold bend; also acts as connecting device for hammers/pulls
 <>  - volume swell (louder/softer)
 x   - on rhythm slash represents muted slash
 o   - on rhythm slash represents single note slash

Misc Legend
-----------
 |  - bar
||  - double bar
||o - repeat start
o|| - repeat end
*|  - double bar (ending)
 :  - bar (freetime)
 $  - Segno
 &  - Coda
Tempo markers -  = BPM(8/16=s8/s16), where s8 = swing 8ths, s16 = swing 16ths
Добавлено: 30.03.2015
Другие материалы по этой песне:
  • Аккорды и текст

Страница создана 26.09.2014
http://primanota.ru/beatles/get-back-naked-chords.htm
Привет, Гость.
Предлагаем пройти революционный курс по гитаре.
Подарок от PrimaNota.Ru, забирай!