PrimaNota.ru - самый крупный в мире бесплатный архив песенных текстов, аккордов, табулатур и нот


Beatles - Honey Dont Live - бас-таба, видео

Регистрация Запомнить меня
Войти через:  Facebook Google Twitter Vk Yandex Mail.ru

Beatles - Honey Dont Live - бас-таба, видео

Печатать
Просмотров: 179
HONEY DON'T

Written by Carl Perkins
From The Beatles Live At The BBC album

INTRO
  t=177
G|---------------------------------|---------------------------------|
D|---------------------------------|---------------------------------|
A|---------------------------------|---------------------------------|
E|---------------------------------|---------------------------------|

G|---------------------------------|---------------------------------|
D|---------------------------------|---------------------------------|
A|---------------------------------|---------------------------------|
E|---------------------------------|---------------------------------|

G|---------------------------------|---------------------------------|
D|---------------------------------|---------------------------------|
A|-7-----------7-------------------|-7-----------------------5-------|
E|-----------------7-------7-------|-----------------7---------------|

VERSE

G|---------------------------------|---------------------------------|
D|---------------------------------|---------------------------------|
A|-7-------------------------------|---------------------7---7-------|
E|---------------------------------|---------------------------------|

G|---------------------------------|---------------------------------|
D|---------------------------------|---------------------------------|
A|---------------------------------|---------------------------------|
E|-8-------------------------------|---------------------8---8-------|

G|---------------------------------|---------------------------------|
D|---------------------------------|---------------------------------|
A|-7-------------------------------|---------------------7---7-------|
E|---------------------------------|---------------------------------|

G|---------------------------------|---------------------------------|
D|---------------------------------|---------------------------------|
A|---------------------------------|---------------------------------|
E|-8-------------------------------|---------------------------------|

G|---------------------------------|---------------------------------|
D|---------------------------------|-9-------7-------6---------------|
A|-----------------9---------------|-------------------------9-------|
E|-7-------------------------------|---------------------------------|

CHORUS

G|---------------------------------|---------------------------------|
D|---------------------------------|---------------------------------|
A|-7-------------------------------|-7-------7---------------5-------|
E|-----------------7---------------|-----------------7---------------|

G|---------------------------------|---------------------------------|
D|---------------------------------|---------------------------------|
A|-7-------------------------------|-7-----------7-------------------|
E|-----------------7---------------|-----------------7---------------|

G|---------------------------------|---------------------------------|
D|---------------------------------|---------------------------------|
A|-7-----------7-------------------|-7-----------7-------------------|
E|-----------------7---------------|-----------------7---------------|

G|---------------------------------|---------------------------------|
D|-7-----------7-------------------|-7-----------7-------------------|
A|-----------------7---------------|-----------------7---------------|
E|---------------------------------|---------------------------------|

G|---------------------------------|---------------------------------|
D|---------------------------------|---------------------------------|
A|-7-----------7-------------------|-7-----------7-------------------|
E|-----------------7---------------|-----------------7---------------|

G|---------------------------------|---------------------------------|
D|---------------------------------|-9-------9-----------------------|
A|-----------------9---------------|-------------------------6-------|
E|-7-----------7-------------------|-----------------7---------------|

G|---------------------------------|---------------------------------|
D|---------------------------------|-9-------7-------6---------------|
A|-7-----------7-------------------|-------------------------9-------|
E|-----------------7---------------|---------------------------------|

VERSE

G|---------------------------------|---------------------------------|
D|---------------------------------|---------------------------------|
A|-7-------------------------------|---------------------7---7-------|
E|---------------------------------|---------------------------------|

G|---------------------------------|---------------------------------|
D|---------------------------------|---------------------------------|
A|---------------------------------|---------------------------------|
E|-8-------------------------------|---------------------8---8-------|

G|---------------------------------|---------------------------------|
D|---------------------------------|---------------------------------|
A|-7-------------------------------|---------------------7---7-------|
E|---------------------------------|---------------------------------|

G|---------------------------------|---------------------------------|
D|---------------------------------|---------------------------------|
A|---------------------------------|---------------------------------|
E|-8-------------------------------|---------------------------------|

G|---------------------------------|---------------------------------|
D|---------------------------------|-9-------7-------6---------------|
A|-----------------9---------------|-------------------------9-------|
E|-7-------------------------------|---------------------------------|

CHORUS

G|---------------------------------|---------------------------------|
D|---------------------------------|---------------------------------|
A|-7-------------------------------|-7-----------7-----------6-------|
E|-----------------7-----------7---|-----------------7---------------|

G|---------------------------------|---------------------------------|
D|---------------------------------|---------------------------------|
A|-7-------------------------------|-----------------2---------------|
E|-----------------7---------------|-0-------------------------------|

G|---------------------------------|---------------------------------|
D|---------------------------------|---------------------------------|
A|-7-------------------------------|-7-------------------------------|
E|-----------------7---------------|-----------------9-------7-------|

G|---------------------------------|---------------------------------|
D|---------------------------------|-7-----------7-------------------|
A|-----------------7---------------|-----------------7---------------|
E|-5-------------------------------|---------------------------------|

G|---------------------------------|---------------------------------|
D|---------------------------------|---------------------------------|
A|-7-------------------------------|-7-----------7-------------------|
E|-----------------7---------------|-----------------7---------------|

G|---------------------------------|---------------------------------|
D|---------------------------------|-7-----------7-----------9-------|
A|-----------------9---------------|-----------------7---------------|
E|-7-----------7-------------------|---------------------------------|

G|---------------------------------|---------------------------------|
D|---------------------------------|---------------------------------|
A|-7-----------7-------------------|-7-----------7-------------------|
E|-----------------7---------------|-----------------7---------------|

GUITAR SOLO

G|---------------------------------|---------------------------------|
D|---------------------------------|---------------------------------|
A|---------------------------------|---------4-------5-------6-------|
E|-0-------4-------5-------6-------|-7-------------------------------|

G|---------------------------------|---------------------------------|
D|---------------------------------|---------2-------3-------2-------|
A|-7-------5-------4---------------|-3-------------------------------|
E|-------------------------7-------|---------------------------------|

G|---------------------------------|---------------------------------|
D|---------------------------------|---------------------------------|
A|-7-------7-----------------------|-7-------7---------------7-------|
E|-----------------7-------7-------|-----------------7---------------|

G|---------------------------------|---------------------------------|
D|-----------------2-------5-------|---------------------------------|
A|-3-------------------------------|-----------------6-------9-------|
E|---------------------------------|-7-------------------------------|

G|---------------------------------|---------------------------------|
D|---------------------------------|---------------------------------|
A|-7-------------------------------|-----------------0-------2-------|
E|---------7-----------------------|-0-------4-----------------------|

G|---------------------------------|---------------------------------|
D|---------------------------------|-2-------------------------------|
A|-----------------2-------4-------|---------4-------2---------------|
E|-0-------4-----------------------|-------------------------4-------|

G|---------------------------------|---------------------------------|
D|-------------------------4-------|-7-------4-----------------------|
A|---------4-------7---------------|-----------------7-------4-------|
E|-5-------------------------------|---------------------------------|

G|---------------------------------|---------------------------------|
D|---------------------------------|---------------------------------|
A|-7-------7-----------------------|-7-------7---------------7-------|
E|-----------------7-------7-------|-----------------7---------------|

G|---------------------------------|---------------------------------|
D|---------------------------------|---------------------------------|
A|---------6-------7-------9-------|---------4-------6-------7-------|
E|-7-------------------------------|-5-------------------------------|

G|---------------------------------|---------------------------------|
D|---------------------------------|---------------------------------|
A|-------------------------0-------|-2-------4-------6-------7-------|
E|-0-------2-------4---------------|---------------------------------|

VERSE

G|---------------------------------|---------------------------------|
D|---------------------------------|---------------------------------|
A|-7-------------------------------|-------------------------7\------|
E|---------------------------------|---------------------------------|

G|---------------------------------|---------------------------------|
D|---------------------------------|---------------------------------|
A|---------------------------------|---------------------------------|
E|-8-------------------------------|---------------------------------|

G|---------------------------------|---------------------------------|
D|---------------------------------|---------------------------------|
A|/7-------------------------------|-------------------------7\------|
E|---------------------------------|---------------------------------|

G|---------------------------------|---------------------------------|
D|---------------------------------|---------------------------------|
A|---------------------------------|---------------------------------|
E|-8-------------------------------|---------------------------------|

G|---------------------------------|---------------------------------|
D|---------------------------------|---------------------------------|
A|-----------------9---------------|-----------------4-------6-------|
E|-7-------------------------------|-7-------7-----------------------|

CHORUS

G|---------------------------------|---------------------------------|
D|---------------------------------|---------------------------------|
A|-7-------------------------------|-7-----------------------6-------|
E|-----------------7---------------|---------7-------9---------------|

G|---------------------------------|---------------------------------|
D|---------------------------------|---------------------------------|
A|-7-----------7-------------------|-7-----------7-----------5-------|
E|-----------------7---------------|-----------------7---------------|

G|---------------------------------|---------------------------------|
D|---------------------------------|---------------------------------|
A|-7-----------7-------------------|-7-------7-----------------------|
E|-----------------7---------------|-----------------9-------7-------|

G|---------------------------------|---------------------------------|
D|---------------------------------|---------------------------------|
A|-0-------------------------------|-0-------------------------------|
E|-----------------0---------------|-----------------0-------7-------|

G|---------------------------------|---------------------------------|
D|---------------------------------|---------------------------------|
A|-7-------------------------------|-7---------------6-------4-------|
E|-----------------7---------------|---------------------------------|

G|---------------------------------|---------------------------------|
D|---------------------------------|---------------------------------|
A|-----------------9---------------|-----------------7---------------|
E|-7-------------------------------|-5-----------------------5-------|

G|---------------------------------|---------------------------------|
D|---------------------------------|-------------2-------------------|
A|---------------------------------|---------2---------------7-------|
E|-0-------4-------5-------6-------|-4---0---------------------------|
Добавлено: 21.05.2012
Другие материалы по этой песне:
  • Аккорды и текст

Страница создана 21.05.2012
http://primanota.ru/beatles/honey-dont-live-chords.htm
Привет, Гость.
Предлагаем пройти революционный курс по гитаре.
Подарок от PrimaNota.Ru, забирай!