PrimaNota.ru - самый крупный в мире бесплатный архив песенных текстов, аккордов, табулатур и нот


Beatles - I Call Your Name Bass - таба, видео

Регистрация Запомнить меня
Войти через:  Facebook Google Twitter Vk Yandex Mail.ru

Beatles - I Call Your Name Bass - таба, видео

Печатать
Просмотров: 242
--------------------------------------------------------------

    THE BEATLES - I CALL YOUR NAME (Lennon/McCartney) Released 
                  in the UK on June 19th 1964. (Long Tall Sally 
                  EP.) First released in the USA on April 14th
                  1964 as part of THE BEATLES' SECOND album. 

--------------------------------------------------------------

    Bass tab by:PJVillanueva



 
    Although it has never been considered that good, I think 
    this song is one among John's best. Writen for Billy J 
    Kramer & The Dakotas in the summer of 1963 and released
    as B side of another Lennon/McCartney number, BAD TO ME,
    John decided to record it too.  
    With its four-in-the-bar cowbell and its sort of "Ska" 
    rythm during  the Solo (never heard before at the time) 
    it shows a beautiful melody and some softer than usual 
    lyrics.



                                
            
I call your name, but you're not there     
Was I to blame for being unfair
Oh I can't sleep at night since you've been gone
I never weep at night,  I can't go on

Don't you know I can't take it
I don't know who can
I'm not going to make it
I'm not that kind of man.

Oh I can't sleep at night, but just the same
I never weep at night, I call your name




  INTRO  
 (4/4 Time)                      
G|------- ------- ------- -------|------- ------- ------- -------|
D|-------------------------------|------------------------(3)/4--|
A|-------------------------------|-------------------------------|
E|-------------------------------|-------------------------------|



G|------- ------- ------- -------|------- ------- ------- -------|
D|--------4---4---4-------4---4--|-------------------------------|
A|-------------------------------|2-------2---2---2-------2---2--|
E|-------------------------------|-------------------------------|

                                          VERSE
                                         
G|------- ------- ------- -------|------- ------- ------- -------|
D|2-----------2---2-------2---2--|----------------------------0/1|
A|-------------------------------|2-------2-------2-------2------|
E|-------------------------------|-------------------------------|
                                          I       call    your  
                                                              name,
  00:08
G|------- ------- ------- -------|------- ------- ------- -------|
D|2-------2----------------------|2-------2-------2-------2------|
A|----------------2-------2------|----------------------------2--|
E|-------------------------------|-------------------------------|
                                          but     you're      there 
                                                      not

G|------- ------- ------- -------|------- ------- ------- -------|
D|-------------------------------|----------------------------3-/|
A|4-------4-------4-------4---2--|4-------4-------4-------4------|
E|-------------------------------|-------------------------------|
                                          Was     I   to      blame 


G|------- ------- ------- -------|------- ------- ------- -------|
D|4-------4-------4---4---4------|4-------4-------4-------4------|
A|-------------------------------|----------------------------1-/|
E|-------------------------------|-------------------------------|
                                          for     being   unfair

                                              
G|------- ------- ------- -------|------- ------- ------- -------|
D|-------------------------------|----------------------------1-/|
A|2-------2-------2---2---2------|2-------2-------2---2---2------|
E|-------------------------------|-------------------------------|
                                              Oh  I       can't 

  00:24
G|------- ------- ------- -------|------- ------- ------- -------|
D|2-------2-------2---2---2------|2-------2-------2-------2------|
A|----------------------------2--|----------------------------2--|
E|-------------------------------|-------------------------------|
  sleep       night                       since   you've      gone
     at                                              been

G|------- ------- ------- -------|------- ------- ------- -------|
D|--------------------3H6-6---6-\|--------------------3/6-6---6--|
A/4-------4-------4--------------|4-------4-------4--------------|
E|-------------------------------|-------------------------------|
                                          I       never 


G|------- ------- ------- -------|------- ------- ------- -------|
D|4-------4-------4-------4---4--|-------------------------------|
A|-------------------------------|0-------0-------0-------2------|
E|-------------------------------|-------------------------------|
  weep        night,                      I       can't       on
      at                                              go

G|------- ------- ------- -------|------- ------- ------- -------|
D|2-------2-------2--------------|2-------2-------2-------2P0----|
A|------------------------2------|----------------------------2--|
E|-------------------------------|-------------------------------|
                                          Don't   know    can't 
                                              you     I
  MIDDLE EIGHT
  00:39
G|------- ------- ------- -------|------- ------- ------- -------|
D|-------------------------------|-------------------------------|
A|0-------0---4---0---0---3-/-4--|0---0---3-/-4---0---0----3-/-4-|
E|-------------------------------|-------------------------------|
  take                                        I   don't   who can
      it                                              know

G|------- ------- ------- -------|------- ------- ------- -------|
D|-------------------------------|-------------------------------|
A|4-------4-------4---4---4------|4---4---4-------4---4---4------|
E|------------4---------------4--|------------4---------------4--|
                                              I'm not going   to 


G|------- ------- ------- -------|------- ------- ------- -------|
D|-------------------------------|-------------------------------|
A|-------------------------------|----------------------------3--|
E|2-------2-------2-------2------|2-------2-------2-------2------|
  make                it                  I'm not that    of  man
                                                      kind

G|------- ------- ------- -------|------- ------- ------- -------|
D|-------------------------------|----------------------------4--|
A|3-------3-------3---3---3---3--|2-------2---2---2-------2------|
E|-------------------------------|-------------------------------|
                                              Oh  I       can't
  VERSE
  00:55
G|------- ------- ------- -------|------- ------- ------- -------|
D|2-------2----------------------|2-------2---------------2------|
A|----------------2-------2------|----------------2-----------2--|
E|-------------------------------|-------------------------------|
  sleep       night,                      but     just        same
      at                                              the

G|------- ------- ------- -------|------- ------- ------- -------|
D|------------------------6------|-------------------------------|
A|4-------4-------4-----------2--|4-------4-------4---4---4---4--|
E|-------------------------------|-------------------------------|
                                          I       never 


G|------- ------- ------- -------|------- ------- ------- -------|
D|4-------4-------4---4---4---2-\|-------------------------------|
A|-------------------------------|0-------0---0---0-------0---2--|
E|-------------------------------|-------------------------------|
  weep        night,                      I       call        name
      at                                              your

G|------- ------- ------- -------|------- ------- ------- -------|
D|2-------2----------------------|2------------------------------|
A|----------------2-------2------|----2---2---2---2---2---2---2--|
E|-------------------------------|-------------------------------|

  SOLO 
 (12/8 Time)
  01:10
G|------- ------- ------- -------|------- ------- ------- -------|
D/2-------2-----2-2-----2-2-----2/2------/2------/2-----2-2--0---|
A|-------------------------------|------------------------------2|
E|-------------------------------|-------------------------------|



G|------- ------- ------- -------|------- ------- ------- -------|
D|-------------------------------|-------------------------------|
A|4-------4----------------------|4-------2----------------------|
E|----------------4-------4------|----------------4-------0------| 


                                   
G|------- ------- ------- -------|------- ------- ------- -------|
D|-------------------------------|-------------------------------|
A|----------------4-------4------|0-------0-------0-------0-----2|
E|2-------2---------------------2|-------------------------------| 



G|------- ------- ------- -------|------- ------- ------- -------|
D|2-------0----------------------|--------2-----2-------2-2-----2|
A|----------------2--------------|-------------------------------|
E|------------------------3------|0---------------0--------------| 
                                          Don't   know    can't
                                              you     I
  MIDDLE EIGHT
 (4/4 Time)
  01:25
G|------- ------- ------- -------|------- ------- ------- -------|
D|-------------------------------|-------------------------------|
A|0-------3---4---0---0---3---4--|0---0---3---4---0---0---3---4--|
E|-------------------------------|-------------------------------|
  take                                        I   don't   who can
      it                                              know

G|------- ------- ------- -------|------- ------- ------- -------|
D|-------------------------------|-------------------------------|
A|4-------4-------------------2--|4-------4---------------2---4--|
E|------------4---4-------4------|------------4---4--------------|
                                              I'm not going   to 


G|------- ------- ------- -------|------- ------- ------- -------|
D|4------------------------------|-------------------------------|
A|-------------------------------|-------------------------------|
E|--------2---2---2-------2---2--|2-------2---2---2-------2------|
  make                it              I'm     not that kind   of  
                                                      

G|------- ------- ------- -------|------- ------- ------- -------|
D|-------------------------------|----------------------------1--|
A|3-------3---3---3---3---3---3--|2-------2---2--/2-------2------|
E|-------------------------------|-------------------------------|
  man                                         Oh  I       can't

  CODA
  01:40
G|------- ------- ------- -------|------- ------- ------- -------|
D|2-------2-------------------1--|2-------2-------------------2--|
A|----------------2-------2------|----------------2-------2------|
E|-------------------------------|-------------------------------|
  sleep       night,                          but just        same
      at                                              the

G|------- ------- ------- -------|------- ------- ------- -------|
D|-------------------------------|----------------------3H6---5--|
A/4-------4-------------------2--|4-------4-------4---4----------|
E|----------------4-------4------|-------------------------------|
                                          I       never 


G|------- ------- ------- -------|------- ------- ------- -------|
D|4-------4-------4-------4---2--|-------------------------------|
A|-------------------------------|0-------0-------0---0---0---2--|
E|-------------------------------|-------------------------------|
  weep        night,                      I       call        name
      at                                              your

G|------- ------- ------- -------|------- ------- ------- -------|
D/2-------2-------2--------------|-------------------------------|
A|----------------------------0--|--------0-------0-------0---2--|
E|--------------------3---4------|-------------------------------|
                                          I       call        namme
                                                      your

G|------- ------- ------- -------|------- ------- ------- -------|
D|2-------2-------2--------------|-------------------------------|
A|------------------------0---0--|--------0-------0---0---0---2--|
E|--------------------0----------|-------------------------------|
                                          I       call        namme
                                                      your

G|------- ------- ------- -------|------- ------- ------- -------|
D|2-------2-------2--------------|-------------------------------|
A|------------------------0---0--|--------0-------0---0---0---2--|
E|--------------------0----------|-------------------------------|
                              Woooooohhh  I       call        namme
                                                      your
                                  ............Fade Out...........

G|------- ------- 7------ -------|------- ------- ------- -------|
D|--------6---9-------9---8---7--|-------------------------------|
A|7------------------------------|-------------------------------|
E|-------------------------------|-------------------------------|
  ...............................







        B  Bend
        R  Release
        /  slide up
        \  slide down
        H  hammer-on
        P  pull-off
        ~  vibrato
        +  harmonic
        x  Mute note
        . - play note like a dot in standard notation
        ^ - ties two notes together
        (. Pause


Добавлено: 29.05.2012
Другие материалы по этой песне:
  • Аккорды и текст

Страница создана 29.05.2012
http://primanota.ru/beatles/i-call-your-name-bass-chords.htm
Привет, Гость.
Предлагаем пройти революционный курс по гитаре.
Подарок от PrimaNota.Ru, забирай!