PrimaNota.ru - самый крупный в мире бесплатный архив песенных текстов, аккордов, табулатур и нот


Beat Crusaders - Firestarter - таба, видео

Регистрация Запомнить меня
Войти через:  Facebook Google Twitter Vk Yandex Mail.ru

Beat Crusaders - Firestarter - таба, видео

Печатать
Просмотров: 186
Уроки эстрадного вокала в Санкт-Петербурге
Авторы музыки: ヒダカトオル
Авторы текста: ヒダカトオル
BEAT CRUSADERS - FIRESTARTER

Tabbed by: HoaX
Email: hoax.jb@gmail.com

Tuning: EADGBE (standard)

* - let ring
/ - slide up
\ - slide down
x - mute note
. - palm mute

*bass intro*

E|---|
B|---|
G|-4-|
D|-4-|
A|-2-|
E|---|

Intro:

E|------------------------------------------------------------------|
B|------------------------------------------------------------------|
G|---------4-4-4-4-6-6-6-6----------------------------------4-4-----|
D|-2-2-2-2-4-4-4-4-6-6-6-6-6-6-6-6-7-7-7-7-6-6-6-6-4-4-4-4--4-4--2*-|
A|-2-2-2-2-2-2-2-2-4-4-4-4-6-6-6-6-7-7-7-7-6-6-6-6-4-4-4-4--2-2--2*-|
E|-0-0-0-0-----------------4-4-4-4-5-5-5-5-4-4-4-4-2-2-2-2-------0*-|

Verse, part I:

*feedback*

E|------------------------------|
B|------------------------------|
G|--------------------------4-4-|
D|-7--7-7-7-7-7-7--6/7-7-7--4-4-|
A|-7--7-7-7-7-7-7--6/7-7-7--2-2-|
E|-5--5-5-5-5-5-5--4/5-5-5------|

Verse, part 2:

E|-----------------------------------|  x2
B|-----------------------------------|
G|---------4-4-4--44-6-6-6-6---------|
D|-2-2-2-2-4-4-4--44-6-6-6-6-6-6-6-6-|
A|-2-2-2-2-2-2-2--22-4-4-4-4-6-6-6-6-|
E|-0-0-0-0-------------------4-4-4-4-|
PM . . . . . . .  .. . . . . . . . .


E|------------------------------|
B|------------------------------|
G|--------------------------4-4-|
D|-7--7-7-7-7-7-7--6/7-7-7--4-4-|
A|-7--7-7-7-7-7-7--6/7-7-7--2-2-|
E|-5--5-5-5-5-5-5--4/5-5-5------|

Chorus:

E|-----------------------|  x2
B|-----------------------|
G|-6*------------------5-|
D|-6*---7*---6*---4*-x-5-|
A|-4*---7*---6*---4*-x-3-|
E|------5*---4*---2*-x---|

E|--------------------|
B|--------------------|
G|-6*---6*--x-8-9*--x-|
D|-6*---6*--x-8-9*--x-|
A|-4*---4*--x-6-7*--x-|
E|--------------------|

Chorus/bridge:

E|------------------------------------------|
B|------------------------------------------|
G|--------------------------8---------------|
D|-7*---2-2-x-2-2-x------7--8---2-2-x-2-2-x-|
A|-7*---2-2-x-2-2-x------7--6---0-0-x-0-0-x-|
E|-5*---0-0-x-0-0-x------5------0-0-x-0-0-x-|

E|--------------------------------------------------------------------|
B|--------------------------------------------------------------------|
G|----------------------------------------------------------------4-4-|
D|-7*---2-2-x-6-6-x-7--7-7-7-7-7-7-7-7-7--6/7-7-7-7--7-7--7-7-7-7-4-4-|
A|-7*---2-2-x-6-6-x-7--7-7-7-7-7-7-7-7-7--6/7-7-7-7--7-7--7-7-7-7-2-2-|
E|-5*---0-0-x-4-4-x-5--5-5-5-5-5-5-5-5-5--4/5-5-5-5--5-5--5-5-5-5-----|

Repeat verse

2nd guitar on verse:

E|------------------------------------------------------------------------|
B|------------------------------------------------------------------------|
G|-8h9-9-9--8h9-9-9--8h9-9-11-9-8----8h9-9-9--8h9-9-9--8h9-11-11-13-13\\\-|
D|------------------------------------------------------------------------|
A|------------------------------------------------------------------------|
E|------------------------------------------------------------------------|


Repeat chorus and bridge

And then on 2:07 

E|------------------------------------------------------------|
B|------------------------------------------------------------|
G|---------4-4-4-4-6-6-6-6----------------------------------4-|
D|-2-2-2-2-4-4-4-4-6-6-6-6-6-6-6-6-7-7-7-7-6-6-6-6-4-4-4-4--4-|
A|-2-2-2-2-2-2-2-2-4-4-4-4-6-6-6-6-7-7-7-7-6-6-6-6-4-4-4-4--2-|
E|-0-0-0-0-----------------4-4-4-4-5-5-5-5-4-4-4-4-2-2-2-2----|
PM . . . . . . . . . . . . . . . . . . . . . . . . . . . . 


2nd guitar: play around with tremolo


E|--------------------------------------------------------------|
B|--------------------------------------------------------------|
G|---------4-4-4-4-6-6-6-6----------------------------------4-4-|
D|-2-2-2-2-4-4-4-4-6-6-6-6-6-6-6-6-7-7-7-7-6-6-6-6-4-4-4-4--4-4-|
A|-2-2-2-2-2-2-2-2-4-4-4-4-6-6-6-6-7-7-7-7-6-6-6-6-4-4-4-4--2-2-|
E|-0-0-0-0-----------------4-4-4-4-5-5-5-5-4-4-4-4-2-2-2-2------|


Repeat chorus and bridge, and that's it.
Добавлено: 04.06.2012
Другие материалы по этой песне:
  • Аккорды и текст

Страница создана 04.06.2012
http://primanota.ru/beat-crusaders/firestarter-chords.htm
Привет, Гость.
Предлагаем пройти революционный курс по гитаре.
Подарок от PrimaNota.Ru, забирай!