PrimaNota.ru - самый крупный в мире бесплатный архив песенных текстов, аккордов, табулатур и нот


Beat Crusaders - Gts - таба, видео

Регистрация Запомнить меня
Войти через:  Facebook Google Twitter Vk Yandex Mail.ru

Beat Crusaders - Gts - таба, видео

Печатать
Просмотров: 273
This is a very fun song, very easy and it sounds cool.

Beat Crusaders
Gts

ok once again LISTEN TO THE SONG, its easy that way

b = bend


now the intro of the song is played weird so just work with me ok?

   A     E     F     B     C     G                          E9
 |-x-| |-x-| |-x-| |-x-| |-x-| |-x-| play this two times  |-x-|
 |-x-| |-x-| |-x-| |-x-| |-x-| |-x-| then at the last     |-x-|
 |-2-| |-x-| |-x-| |-4-| |-5-| |-x-| time dont play the   |-9-|
 |-2-| |-2-| |-3-| |-4-| |-5-| |-5-| "G" play E9          |-9-|
 |-0-| |-2-| |-3-| |-2-| |-3-| |-5-|                      |-7-|
 |-x-| |-0-| |-1-| |-x-| |-x-| |-3-|                      |-x-|
  x3    x1    x3    x1    x3    x4                         x5


Chorus
guitar 1
|----------------------------------|----------------------------------|
|----------------------------------|----------------------------------|
|--------------4-555555555555------|----------------------------------|
|-333333333333-4-555555555555-2-X2-|-5----5----5----5----5------------|
|-333333333333-2-333333333333-2----|-5----5----5----5----5------------|
|-111111111111----------------0----|-3----3----3----3----3------------|
                              hold the first 4 notes for 3 sec
                                 then stop at the fifth one
guitar 2
|----------------------------------|----------------------------------|
|-17-------------------------------|-17-------------------------------|
|-19b21----------17------17--19----|-19b21----------------------------|
|---------------------19-----------|----------------------------------|
|----------------------------------|----------------------------------|
|----------------------------------|----------------------------------|

now go back and play the intro


when you play this for the 3rd time, the chorus is different.
   A     E     F     B     C     G                          E9
 |-x-| |-x-| |-x-| |-x-| |-x-| |-x-| play this two times  |-x-|
 |-x-| |-x-| |-x-| |-x-| |-x-| |-x-| then at the last     |-x-|
 |-2-| |-x-| |-x-| |-4-| |-5-| |-x-| time dont play the   |-9-|
 |-2-| |-2-| |-3-| |-4-| |-5-| |-5-| "G" play E9          |-9-|
 |-0-| |-2-| |-3-| |-2-| |-3-| |-5-|                      |-7-|
 |-x-| |-0-| |-1-| |-x-| |-x-| |-3-|                      |-x-|
  x3    x1    x3    x1    x3    x4                         x5


|----------------------------------------------------------------------------|
|----------------------------------------------------------------------------|
|----------------------------------------------------------------------------|
|----------------------------------------------------------------------22222-|
|---------------------3333-5555-77777777----------------2222-3333-5555-------|
|-1111-3333-55555555----------------------1111-3333-5555---------------------|

|----------------------------------|
|----------------------------------|
|--------------4-555555555555------|
|-333333333333-4-555555555555-2----|  X4
|-333333333333-2-333333333333-2----|
|-111111111111----------------0----|


guitar 2
|----------------------------------|
|-17-------------------------------|
|-19b21----------17------17--19----|
|---------------------19-----------|  X4
|----------------------------------|
|----------------------------------|


sorry but the ending is hard to find out, my bad...
anyways thats the whole song, very easy
but sorry about the missing ending.

thanks again
Rusty S

Drummerdirtydee@yahoo.com
Добавлено: 19.03.2012
Другие материалы по этой песне:
  • Аккорды и текст

Страница создана 19.03.2012
http://primanota.ru/beat-crusaders/gts-chords.htm
Привет, Гость.
Предлагаем пройти революционный курс по гитаре.
Подарок от PrimaNota.Ru, забирай!