PrimaNota.ru - самый крупный в мире бесплатный архив песенных текстов, аккордов, табулатур и нот


Beat Crusaders - Perfect Day - таба, видео

Регистрация Запомнить меня
Войти через:  Facebook Google Twitter Vk Yandex Mail.ru

Beat Crusaders - Perfect Day - таба, видео

Печатать
Просмотров: 190
Уроки эстрадного вокала в Санкт-Петербурге
Guitar1:

e|-----------|	     e|----------------|
B|---4---9---|	     B|---4---9---14---|
G|---4---9---|	     G|---4---9---14---|
D|---2---7---|	     D|---2---7---12---|
A|-----------|	     A|----------------|
E|-----------| 7x   E|----------------|


e|-----------|	     e|----------------|
B|---4---9---|	     B|---4---9---14---|
G|---4---9---|	     G|---4---9---14---|
D|---2---7---|	     D|---2---7---12---|
A|-------0---|	     A|-------0--------|
E|---0-------| 7x   E|---0------------|


Too many years...
e|-----------------------------------------------------------|
B|-------------------------------------------------------4---|
G|-----------------------9---9---8---9---9---9---9---8-------|
D|---9---6-----------4---9---9---9---9---9---9---9---9---4---|
A|---7---4---7---4---2---7---7---7---7---7---7---7---7---2---|
E|-----------5---2-------------------------------------------|


e|-----------|	     e|----------------|		
B|---4---9---|	     B|---4---9---14---|
G|---4---9---|	     G|---4---9---14---|
D|---2---7---|	     D|---2---7---12---|
A|-------0---|	     A|-------0--------|
E|---0-------| 3x   E|---0------------|


Too many things...
e|-------------------------------------------------------|
B|---------------------------------------------------4---|
G|-----------------------------------9---9---8---9-------|
D|---9---9---6---4---------------4---9---9---9---9---4---|
A|---7---6---4---2---7---6---4---2---7---7---7---7---2---|
E|-------------------5---4---2---------------------------|


As I walk...
e|-----------------------|
B|-----------------------|
G|-----------------------|
D|---6---------------4---|
A|---4---6---7---7---2---|
E|-------4---5---5-------| 2x


Ordinary happennigs...
e|---2---4---0---2---5---|
B|---2---4---2---1---4---|
G|---2---4---2---2---5---|
D|---4---6---2---1---4---|
A|---4---6---0-----------|
E|---2---4---------------|


Girl, I don't understand...
e|---0-------0---0---0---0----|
B|---0---4---0---0---0---0----|
G|---1---5---6---7---2---8----|
D|---2---4---6---7---2---9----|
A|---2-------4---5---0---9----|
E|---0---4---------------7----| 2x


e|----------------------------------------|
B|---4---9---4---9---4---9---4---9---14---|
G|---4---9---4---9---4---9---4---9---14---|
D|---2---7---2---7---2---7---2---7---12---|
A|-------0-------0-------0-------0--------|
E|---0-------0-------0-------0------------|


Too many things...
e|---2-----------------------------------------|
B|---4---------4-------------------------------|
G|---4-----------------------------------------|
D|---2---------4---9---9---6---------------4---|
A|-------------2---7---6---4---7---6---4---2---|
E|-----------------------------5---4---2-------|


As I walk...
e|-----------------------|
B|-----------------------|
G|-----------------------|
D|---6---------------4---|
A|---4---6---7---7---2---|
E|-------4---5---5-------| 2x


Ordinary happennigs...
e|---2---4---0---2---5---|
B|---2---4---2---1---4---|
G|---2---4---2---2---5---|
D|---4---6---2---1---4---|
A|---4---6---0-----------|
E|---2---4---------------|


Girl, I don't understand...
e|---0-------0---0---0---0----|
B|---0---4---0---0---0---0----|
G|---1---5---6---7---2---8----|
D|---2---4---6---7---2---9----|
A|---2-------4---5---0---9----|
E|---0---4---------------7----| 2x


Said good bye
e|-----------------------------------2---5---|
B|-----------------------------------1---4---|
G|-----------------------------------2---5---|
D|---------------4---7---------------1---4---|
A|---4---6---7---2---6---4---6---7-----------|
E|---2---4---5-----------2---4---5-----------| 


Girl I don't understand...
e|-----------------------------------0---0---0-------|
B|---4---4---------------4---4---4---0---0---0---4---|
G|---4---5---------------4---4---5---6---7---2---4---|
D|---2---4---6---7---2-------2---4---6---7---2-------|
A|-----------4---5---0---2-----------4---5---0---2---|
E|---0---4-------------------0---4-------------------|


I don't understand...
e|---0-------0---0---0---0----|
B|---0---4---0---0---0---0----|
G|---1---5---6---7---2---8----|
D|---2---4---6---7---2---9----|
A|---2-------4---5---0---9----|
E|---0---4---------------7----| 2x


e|------------------------------------|
B|---4---9---4---9---4---9---4---10---|
G|---4---9---4---9---4---9---4---9----|
D|---2---7---2---7---2---7---2---7----|
A|-------0-------0-------0------------|
E|---0-------0-------0-------0--------|


e|----------------------------------------|
B|---4---9---4---9---4---9---4---9---14---|
G|---4---9---4---9---4---9---4---9---14---|
D|---2---7---2---7---2---7---2---7---12---|
A|-------0-------0-------0-------0--------|
E|---0-------0-------0-------0------------| 2x


==================================================================================
==================================================================================


Perfect Day (Guitar 2)

e|----------------------------------------------------------|
B|---9--------------------10--9---9--------------------12---|
G|-----9-11-9--11--9--11------------9-11-9--11--9--11-------|
D|----------------------------------------------------------|
A|----------------------------------------------------------|
E|----------------------------------------------------------|

e|----------------------------------------------------------|
B|---9-9----9------9------10--9---9-9----9------9------12---|
G|-------11-9--11--9--11--------------11-9--11--9--11-------|
D|----------------------------------------------------------|
A|----------------------------------------------------------|
E|----------------------------------------------------------| 2x

Too many years go passing by...
e|-----------------------------------------------------------|
B|-------------------------------------------------------4---|
G|-----------------------9---9---8---9---9---9---9---8-------|
D|---9---6-----------4---9---9---9---9---9---9---9---9---4---|
A|---7---4---7---4---2---7---7---7---7---7---7---7---7---2---|
E|-----------5---2-------------------------------------------|


e|----------------------------------------------------------|
B|---9-9----9------9------10--9---9-9----9------9------12---|
G|-------11-9--11--9--11--------------11-9--11--9--11-------|
D|----------------------------------------------------------|
A|----------------------------------------------------------|
E|----------------------------------------------------------|


Too many things are left behind...
e|------------12---------------|   e|------------12--------------16---|
B|---------12-----12-----------|   B|---------12-----12---------------|
G|---13h14------------14--13---|   G|---13h14------------14--13-------|
D|-----------------------------|   D|---------------------------------|
A|-----------------------------|   A|---------------------------------|
E|-----------------------------|   E|---------------------------------|


As I walk among the crazy days...
e|-------------------|
B|---5---4---5---7---|
G|---6---4---4---4---|
D|-------------------|
A|-------------------|
E|-------------------| 2x


Ordinary happenings just are mostly strange
e|---2---4---0---2---5---|
B|---2---4---2---1---4---|
G|---2---4---2---2---5---|
D|---4---6---2---1---4---|
A|---4---6---0-----------|
E|---2---4---------------|


Girl I don't understand...
e|---0-------0---0---0---0----|
B|---0---4---0---0---0---0----|
G|---1---5---6---7---2---8----|
D|---2---4---6---7---2---9----|
A|---2-------4---5---0---9----|
E|---0---4---------------7----|

I misunderstand...
e|---7/12--14---|
B|--------------|
G|---4/9---11---|
D|--------------|
A|--------------|
E|--------------|


e|----------------------------------------------------------|
B|---9-9----9------9------10--9---9-9----9------9------12---|
G|-------11-9--11--9--11--------------11-9--11--9--11-------|
D|----------------------------------------------------------|
A|----------------------------------------------------------|
E|----------------------------------------------------------|

Too many things are left behind
Nobody seems around here
Even I might be high and dry...
e|----------------------------------------------------------|
B|---9-9----9------9------10--9---9-9----9------9------12---|
G|-------11-9--11--9--11--------------11-9--11--9--11-------|
D|----------------------------------------------------------|
A|----------------------------------------------------------|
E|----------------------------------------------------------|


As I walk among the crazy days...
e|-------------------|
B|---5---4---5---7---|
G|---6---4---4---4---|
D|-------------------|
A|-------------------|
E|-------------------| 2x


Ordinary happenings just are mostly strange
e|---2---4---0---2---5---|
B|---2---4---2---1---4---|
G|---2---4---2---2---5---|
D|---4---6---2---1---4---|
A|---4---6---0-----------|
E|---2---4---------------|


Girl I don't understand...
e|---0-------0---0---0---0----|
B|---0---4---0---0---0---0----|
G|---1---5---6---7---2---8----|
D|---2---4---6---7---2---9----|
A|---2-------4---5---0---9----|
E|---0---4---------------7----|

I misunderstand...
e|---7/12--14---|
B|--------------|
G|---4/9---11---|
D|--------------|
A|--------------|
E|--------------|


Said good bye...
e|---16-12-0----0-12-0----0----0-12-0-14---|
B|-----------12--------10---12-------------|
G|-----------------------------------------|
D|-----------------------------------------|
A|-----------------------------------------|
E|-----------------------------------------| 3x

e|---16-12-0----0-12-0-------------------|
B|-----------12---------13\11------------|
G|-------------------------------14\10---|
D|---------------------------------------|
A|---------------------------------------|
E|---------------------------------------|


Girl I don't understand...
e|---16-12-0----0-12-0----0----0-12-0-14---|
B|-----------12--------10---12-------------|
G|-----------------------------------------|
D|-----------------------------------------|
A|-----------------------------------------|
E|-----------------------------------------| 16x


e|----------------------------------------------------------|
B|---9-9----9------9------10--9---9-9----9------9------12---|
G|-------11-9--11--9--11--------------11-9--11--9--11-------|
D|----------------------------------------------------------|
A|----------------------------------------------------------|
E|----------------------------------------------------------| 2x


e|----------------------------------------------------------|
B|---9--------------------10--9---9--------------------12---|
G|-----9-11-9--11--9--11------------9-11-9--11--9--11-------|
D|----------------------------------------------------------|
A|----------------------------------------------------------|
E|----------------------------------------------------------|
Добавлено: 09.06.2012
Другие материалы по этой песне:

Страница создана 09.06.2012
http://primanota.ru/beat-crusaders/perfect-day-chords.htm
Привет, Гость.
Предлагаем пройти революционный курс по гитаре.
Подарок от PrimaNota.Ru, забирай!