PrimaNota.ru - самый крупный в мире бесплатный архив песенных текстов, аккордов, табулатур и нот


Beach House - Equal Mind - текст песни, таба, видео

Регистрация Запомнить меня
Войти через:  Facebook Google Twitter Vk Yandex Mail.ru

Beach House - Equal Mind - текст песни, таба, видео

Печатать
Просмотров: 146
Уроки эстрадного вокала в Санкт-Петербурге
-------------------------------------------------------------------------------
                             EQUAL MIND - Beach House
-------------------------------------------------------------------------------
Tabbed by: markiiitu
E-mail: marcolucio27@gmail.com

Tuning: Standard

e|--6-8---6-8---6-8--|
B|------8-----8------|
G|-------------------| 8x
D|-------------------|
A|-------------------|
E|-------------------|

e|----------------------------------------|
B|--4--------6--------4--------6----------|
G|--1--------3--------1--------3----------| 4x
D|--1--------3--------1--------3----------|
A|----------------------------------------|
E|----------------------------------------|

************************************

| /   slide up
| \   slide down
| h   hammer-on
| p   pull-off
| ~   vibrato
| +   harmonic
| x   Mute note
| b   Bend
| pb  Pre-bend
| br  Bend release
| pbr Pre-bend release
| brb Bend release bend

************************************
Добавлено: 30.04.2015
Другие материалы по этой песне:
  • Аккорды и текст

Страница создана 24.07.2014
http://primanota.ru/beach-house/equal-mind-chords.htm
Привет, Гость.
Предлагаем пройти революционный курс по гитаре.
Подарок от PrimaNota.Ru, забирай!