PrimaNota.ru - самый крупный в мире бесплатный архив песенных текстов, аккордов, табулатур и нот


Band Of Skulls - Youre Not Pretty But You Got It Goin On - таба, видео

Регистрация Запомнить меня
Войти через:  Facebook Google Twitter Vk Yandex Mail.ru

Band Of Skulls - Youre Not Pretty But You Got It Goin On - таба, видео

Печатать
Просмотров: 333
-------------------------------------------------------------------------------
           You're Not Pretty But You Got It Goin' On - Band of Skulls
-------------------------------------------------------------------------------
Tabbed by: SurroundSound
E-mail:

Speed: 150 bpm

Tuning: Standard

Intro (4x palm muted)
Intro (4x normal)
Verse (1x)
Intro (4x)
Verse (1x)
Bridge
Solo
Intro* 4x 
Intro  4x


Intro:

e|------------------------------------------------|
B|------------------------------------------------|
G|------------------------------------------------|
D|----12-10----12-10----12-10----12-10------------|
A|--0--------0--------0--------0--------0-10-12---|
E|------------------------------------------------|


Verse:

e|------------------------------------------------------------------------|
B|------------------------------------------------------------------------|
G|------------------------------------------------------------------------|
D|-7--7---7---7---7-7-7--7---7---7---7-7-7--7---7---7---7-7-7--7---7---7--|
A|-0--0---0---0---0-0-0--0---0---0---0-0-0--0---0---0---0-0-0--0---0---0--|
E|------------------------------------------------------------------------|

e|----------------------------------------------------------------------------------|
B|----------------------------------------------------------------------------------|
G|----------------------------------------------------------------------------------|
D|--2h0-5--5---5---5---2h0-4--4---2h0-3--3---2h0-2--2---2---2---2-2-2--2---2-2--2-2-|
A|------3--3---3---3-------2--2-------1--1-------0--0---0---0---0-0-0--0---0-0--0-0-|
E|----------------------------------------------------------------------------------|


Bridge:

eighth triplets (42x)                          
e|---------------|------------|------------|--------------|
B|---555555555555|555555555555|555555555555|555555777777--|
G|---666666666666|666666666666|666666666666|666666888888--|
D|---777777777777|777777777777|777777777777|777777999999--|
A|---------------|------------|------------|--------------|
E|---------------|------------|------------|--------------|
                                            
   (36x)                                                                        quarter triplets
e|---------------------------|------------------------|------------------------|------------------|
B|---8 8 8 8 8 8 8 8 8 8 8 8 |8 8 8 8 8 8 8 8 8 8 8 8 |8 8 8 8 8 8 8 8 8 8 8 8 |6--6--6--6--6--6--|
G|---9 9 9 9 9 9 9 9 9 9 9 9 |9 9 9 9 9 9 9 9 9 9 9 9 |9 9 9 9 9 9 9 9 9 9 9 9 |7--7--7--7--7--7--|
D|---101010101010101010101010|101010101010101010101010|101010101010101010101010|8--8--8--8--8--8--|
A|---------------------------|------------------------|------------------------|------------------|
E|---------------------------|------------------------|------------------------|------------------|

eighth triplets (42x)                          
e|---------------|------------|------------|--------------|
B|---555555555555|555555555555|555555555555|555555777777--|
G|---666666666666|666666666666|666666666666|666666888888--|
D|---777777777777|777777777777|777777777777|777777999999--|
A|---------------|------------|------------|--------------|
E|---------------|------------|------------|--------------|
                                            
   (36x)                                                                        
e|---------------------------|------------------------|------------------------|-------------|
B|---8 8 8 8 8 8 8 8 8 8 8 8 |8 8 8 8 8 8 8 8 8 8 8 8 |8 8 8 8 8 8 8 8 8 8 8 8 |7~~~~~~~~~~~~|
G|---9 9 9 9 9 9 9 9 9 9 9 9 |9 9 9 9 9 9 9 9 9 9 9 9 |9 9 9 9 9 9 9 9 9 9 9 9 |8~~~~~~~~~~~~|
D|---101010101010101010101010|101010101010101010101010|101010101010101010101010|9~~~~~~~~~~~~|
A|---------------------------|------------------------|------------------------|-------------|
E|---------------------------|------------------------|------------------------|-------------|



Intro*:

e|------------------------------------------------|
B|------------------------------------------------|
G|------------------------------------------------|
D|----12-10----12-10----12-10----12-10------------|
A|--0--------0--------0--------0--------0-10-12---|
E|------------------------------------------------|

e|------------------------------------------------|
B|------------------------------------------------|
G|------------------------------------------------|
D|----10-9-----10-9-----10-9-----10-9-------------|
A|--0--------0--------0--------0--------0-10-12---|
E|------------------------------------------------|

e|----------------------------------------|
B|----------------------------------------|
G|----------------------------------------|
D|----9-7----9-7----9-7----9-7------------|
A|--0------0------0------0------0-10-12---|
E|----------------------------------------|

e|----------------------------------------|
B|----------------------------------------|
G|----------------------------------------|
D|----9-7----9-7----9-7----9-7------------|
A|--0------0------0------0------0-10-12---|
E|----------------------------------------|


************************************

| /   slide up
| \   slide down
| h   hammer-on
| p   pull-off
| ~   vibrato
| +   harmonic
| x   Mute note
| b   Bend
| pb  Pre-bend
| br  Bend release
| pbr Pre-bend release
| brb Bend release bend

************************************
Добавлено: 03.06.2014
Другие материалы по этой песне:
  • Аккорды и текст

Страница создана 06.07.2013
http://primanota.ru/band-of-skulls/youre-not-pretty-but-you-got-it-goin-on-chords.htm
Привет, Гость.
Предлагаем пройти революционный курс по гитаре.
Подарок от PrimaNota.Ru, забирай!