PrimaNota.ru - самый крупный в мире бесплатный архив песенных текстов, аккордов, табулатур и нот


Band Of Skulls - Light Of The Morning - текст песни, таба, видео

Регистрация Запомнить меня
Войти через:  Facebook Google Twitter Vk Yandex Mail.ru

Band Of Skulls - Light Of The Morning - текст песни, таба, видео

Печатать
Просмотров: 231
-------------------------------------------------------------------------------

Tuning: Standard

Intro/Verse:

e|---------------------------------------------------------------------------|
B|---------------------------------------------------------------------------|
G|---------------------------------------------------------------------------|
D|---------------------------------------------------------------------------|
A|--9------------------------------------------------------------------------|
E|--7------------------------------------------------------------------------|

"I wanna see you in the morning..."
e|-------------------------------------------------------------------|
B|-------------------------------------------------------------------|
G|----7---9--9b-9-7-------------------7--9--9b-9--7----9b-9-7--------| Note: The note on the ninth 
D|-9----------------9----9--------9----------------9---------9---9---| fret after the bend is some-
A|-----------------------7--9------------------------------------7--9| times a release of the bend,
E|--------------------------7---------------------------------------7| and sometimes plucked. 

"You gotta go, you gotta go..."
e|---------------------------------------------------------------------------|
B|--------------------------------------------------------------10-7---------|
G|--7------7------9b--7--9------------7--9--9b-9--7---9b-9--7--------10p9--7-|
D|---9p7----9p7-------------9-------9--------------9---------9---------------|
A|-------9-----9------------7--9---------------------------------------------|
E|-----------------------------7---------------------------------------------|

Chorus:

e|---------------------------------------------------------------------------|
B|---------------------------------------------------------------------------|
G|---------------------------------------------------------------------------|
D|-9-----9-----9-------------9-----9-----9-----------------------------------|
A|-7--9--7--9--7--9--4-------7--9--7--9--7--9--4-----------------------------|
E|----7-----7-----7--2----------7-----7-----7--2-----------------------------|

Breakdown:

e|---------------------------------------------------------------------------|
B|---------------------------------------------------------------------------|
G|-----------6--8----6-----------------6--8--b8--8---------------------------|
D|---------9------------9-----------9----------------------------------------|
A|--9---9-------------------2---2--------------------------------------------|
E|--7---7-------------------0---0--------------------------------------------|

e|---------------------------------------------------------------------------|
B|---------------------------------------------------------------------------|
G|----------6--8--8--8----6----------------6--8--b8--8-----------------------|
D|--------9-----------------9-----------9------------------------------------|
A|--9---9----------------------2---2-----------------------------------------|
E|--7---7----------------------0---0-----------------------------------------|


Repeat all as necessary.

| /  slide up
| \  slide down
| h  hammer-on
| p  pull-off
| ~  vibrato
| +  harmonic
| x  Mute note
===============================================================================
Добавлено: 21.07.2012
Другие материалы по этой песне:

Страница создана 10.03.2012
http://primanota.ru/band-of-skulls/light-of-the-morning-chords.htm
Привет, Гость.
Предлагаем пройти революционный курс по гитаре.
Подарок от PrimaNota.Ru, забирай!