PrimaNota.ru - самый крупный в мире бесплатный архив песенных текстов, аккордов, табулатур и нот


Balmorhea - Coahuila - таба, видео

Регистрация Запомнить меня
Войти через:  Facebook Google Twitter Vk Yandex Mail.ru

Balmorhea - Coahuila - таба, видео

Печатать
Просмотров: 93
*****************************************************************************

                             
                          Balmorhea - Coahuila
            From the album "All Is Wild, All Is Silent" (2009)





 I do not guarantee this tab to be free from error. I have not found tabs
for this song, so I decided to figure it out myself - it sounds good,
thought I'd share it. This is my first tab. Have some good time playing.

 The song is originally played with two guitars, but it sounds nice with
only one, too. I've only tabbed it until 0:50, that is, the first three
repetitions of the pattern, which it follows with some changes here and
there. At 1:35 the guitar changes to strumming chords until 2:55, where
it goes back to a similar pattern for the coda.


 Fingerpicking pattern:            The chord shapes are basically all
                                 barre with the high E string left
e|------------M--------|         open and a few alterations:
B|------M--------------|
G|---------------------|          B, B, C#m, C#m, E, D#m, C#m, B, A, E
D|---------T--T--------|
A|------T--------------|
E|---------------------|


 First three times (the last bit is slightly different the 3rd time):

  1)  '        '        '        '        '        '
e|---------0--------0--------0--------0--------0--------0-------------------|
B|----4--------4--------5--------5--------9--------7------------------------|
G|--------------------------------------------------------------------------|
D|------4--4-----4--4-----6--6-----6--6-----9--9-----9--9-------------------|
A|----2--------2--------4--------4--------7--------6------------------------|
E|--------------------------------------------------------------------------|

      '        '        '        '        '
e|---------0--------0--------0--------0------------0------------------------|
B|-------------4--------2--------0------------0-----------------------------|
G|--------------------------------------------------------------------------|
D|------6--------4--4-----2--2-----2--2---4/6----4--------------------------|
A|----4--------2--------0--------2------------------------------------------|
E|--------------------------------------------------------------------------|

  2)  '        '        '        '        '        '
e|---------0--------0--------0--------0--------0--------0-------------------|
B|----4--------4--------5--------5--------9--------7------------------------|
G|--------------------------------------------------------------------------|
D|------4--4-----4--4-----6--6-----6--6-----9--9-----9--9-------------------|
A|----2--------2--------4--------4--------7--------6------------------------|
E|--------------------------------------------------------------------------|

      '        '        '        '        '
e|---------0--------0--------0--------0------------0------------------------|
B|-------------4--------2--------0------------0-----------------------------|
G|--------------------------------------------------------------------------|
D|------6--------4--4-----2--2-----2--2---4/6----4--------------------------|
A|----4--------2--------0--------2------------------------------------------|
E|--------------------------------------------------------------------------|

  3)  '        '        '        '        '        '
e|---------0--------0--------0--------0--------0--------0-------------------|
B|----4--------4--------5--------5--------9--------7------------------------|
G|--------------------------------------------------------------------------|
D|------4--4-----4--4-----6--6-----6--6-----9--9-----9--9-------------------|
A|----2--------2--------4--------4--------7--------6------------------------|
E|--------------------------------------------------------------------------|

      '        '        '        '        '
e|---------0--------0--------0--------0-------------0-----------------------|
B|-------------4--------2--------0------------0-----------------------------|
G|--------------------------------------------------------------------------|
D|------6--------4--4-----2--2-----2--2---4/6---6\4-------------------------|
A|----4--------2--------0--------2------------------------------------------|
E|--------------------------------------------------------------------------|



 When the strings start playing:

e|-----------------|
B|----------0------|
G|-----------------|
D|--------6---6----|
A|----6/7----------|
E|-----------------|




 Tabbed by Adam D.

*****************************************************************************
Добавлено: 02.01.2016
Другие материалы по этой песне:
  • Аккорды и текст

Страница создана 02.01.2016
http://primanota.ru/balmorhea/coahuila-chords.htm
Привет, Гость.
Предлагаем пройти революционный курс по гитаре.
Подарок от PrimaNota.Ru, забирай!