PrimaNota.ru - самый крупный в мире бесплатный архив песенных текстов, аккордов, табулатур и нот


Bad Religion - Grand Delusion - текст песни, таба, бас-таба, видео

Регистрация Запомнить меня
Войти через:  Facebook Google Twitter Vk Yandex Mail.ru

Bad Religion - Grand Delusion - текст песни, таба, бас-таба, видео

Печатать
Просмотров: 190
                               THE GRAND DELUSION
                           As recorded by Bad Religion
                     (From the 2007 Album NEW MAPS OF HELL)

Words and Music by Bad Religion
Arranged by Bad Religion
Transcribed by Spidey255

Gtr I (E A D G B E) - 'Untitled'
Gtr II (E A D G B E) - 'Untitled'

   Verse
    Q=160
    Em          D5            C5          B5
   4/4
    Gtr I
    S S E +E  E S S E +E  E   S S E +E  E S S E +E  E
||--7-7-7-(7)-7-------------|-------------------------|
||o-8-8-8-(8)-8-------------|-------------------------|
||--9-9-9-(9)-9-7-7-7-(7)-7-|-5-5-5-(5)-5-4-4-4-(4)-4-|
||--9-9-9-(9)-9-7-7-7-(7)-7-|-5-5-5-(5)-5-4-4-4-(4)-4-|
||o-7-7-7-(7)-7-5-5-5-(5)-5-|-3-3-3-(3)-3-2-2-2-(2)-2-|
||--------------------------|-------------------------|


  E5          B5            C5          D5
  S S E +E  E S S E +E  E   S S E +E  E S S E +E  E
|-------------------------|---------------------------||
|-------------------------|--------------------------o||
|-------------4-4-4-(4)-4-|-5-5-5-(5)-5-7-7-7-(7)-7---||
|-2-2-2-(2)-2-4-4-4-(4)-4-|-5-5-5-(5)-5-7-7-7-(7)-7---||
|-2-2-2-(2)-2-2-2-2-(2)-2-|-3-3-3-(3)-3-5-5-5-(5)-5--o||
|-0-0-0-(0)-0-------------|---------------------------||


   Pre-Chorus
    C5                    B5
    PM-----------------------------------------
    E E  E  E  E  E E E   E E  E  E  E  E E E
||----------------------|---------------------|
||o---------------------|---------------------|
||----------------------|---------------------|
||--5-5--5--5--5--5-5-5-|-4-4--4--4--4--4-4-4-|
||o-3-3--3--3--3--3-3-3-|-2-2--2--2--2--2-2-2-|
||----------------------|---------------------|
|
|   Gtr II
|   E E +E  E +Q    Q     E E +E  E +Q    Q
||----------7-(7)-------|---------7-(7)-------|
||o---7-(7)---------7---|---7-(7)---------7---|
||--9-------------------|-8-------------------|
||----------------------|---------------------|
||o---------------------|---------------------|
||----------------------|---------------------|


 1.
  E5                    G5  D5 A5 B5
 -------------------|
  E E  E  E  E  E E E    Q  Q  Q  Q
|---------------------|----------------||
|---------------------|---------------o||
|---------------------|-12--7----------||
|---------------------|-12--7--7--9----||
|-2-2--2--2--2--2-2-2-|-10--5--7--9---o||
|-0-0--0--0--0--0-0-0-|--------5--7----||
|
| E E +E  E +Q    Q      Q  Q  Q  Q
|---------7-(7)-------|----------------||
|---8-(8)---------8---|---------------o||
|-9-------------------|-12--7----------||
|---------------------|-12--7--7--9----||
|---------------------|-10--5--7--9---o||
|---------------------|--------5--7----||


  2.
  E5
  PM|        PM-|      PM|
  E E  Q     E  E Q    E E Q   Q   Q
|--------------------|-----------------|
|--------------------|-----------------|
|------9----------9--|-----9---9---7---|
|------9----------9--|-----9---9---7---|
|------7----------7--|-----7---7---5---|
|-0-0--------0--0----|-0-0-------------|
|
| E E +E  E +Q    Q    E E E E E E E E
|---------7-(7)------|-7-------7-------|
|---8-(8)---------8--|---8---8---8---8-|
|-9------------------|-----9-------9---|
|--------------------|-----------------|
|--------------------|-----------------|
|--------------------|-----------------|


  C5                    B5
  PM--------------------------------------|
  E E  E  E  E  E E E   E E  E  E  E  E E E
|---------------------|---------------------|
|---------------------|---------------------|
|---------------------|---------------------|
|-5-5--5--5--5--5-5-5-|-4-4--4--4--4--4-4-4-|
|-3-3--3--3--3--3-3-3-|-2-2--2--2--2--2-2-2-|
|---------------------|---------------------|
|
| E E +E  E +Q    Q     E E +E  E +Q    Q
|---------7-(7)-------|---------7-(7)-------|
|---7-(7)---------7---|---7-(7)---------7---|
|-9-------------------|-8-------------------|
|---------------------|---------------------|
|---------------------|---------------------|
|---------------------|---------------------|


  E5                    G5  D5 A5 B5
  PM----------------|
  E E  E  E  E  E E E    Q  Q  Q  Q
|---------------------|--------------|
|---------------------|--------------|
|---------------------|-12--7--------|
|---------------------|-12--7--7--9--|
|-2-2--2--2--2--2-2-2-|-10--5--7--9--|
|-0-0--0--0--0--0-0-0-|--------5--7--|
|
| E E +E  E +Q    Q      Q  Q  Q  Q
|---------7-(7)-------|--------------|
|---8-(8)---------8---|--------------|
|-9-------------------|-12--7--------|
|---------------------|-12--7--7--9--|
|---------------------|-10--5--7--9--|
|---------------------|--------5--7--|


  C5                    B5
  E E  E  E  E  E E E   E E  E  E  E  E E E
|---------------------|---------------------|
|---------------------|---------------------|
|-5-5--5--5--5--5-5-5-|-4-4--4--4--4--4-4-4-|
|-5-5--5--5--5--5-5-5-|-4-4--4--4--4--4-4-4-|
|-3-3--3--3--3--3-3-3-|-2-2--2--2--2--2-2-2-|
|---------------------|---------------------|
|
| E E +E  E +Q    Q     E E +E  E +Q    Q
|---------7-(7)-------|---------7-(7)-------|
|---7-(7)---------7---|---7-(7)---------7---|
|-9-------------------|-8-------------------|
|---------------------|---------------------|
|---------------------|---------------------|
|---------------------|---------------------|


   Chorus
    E5
      PM--|             PM----|
    E E E E H         S S E E E H        3x
||------------------|--------------------||
||o-----------------|-------------------o||
||----------9-------|-----------9--------||
||----------9-------|-----------9--------||
||o---------7-------|-----------7-------o||
||--0-0-0-0---------|-0-0-0-0-0----------||
|
|   E E E E E E E E   E   E E E E E E E  3x
||------0-----0---0-|-------0---------0--||
||o-----------------|-------------0-----o||
||--7-9---9-7---9---|-7---9---9-7---0----||
||------------------|--------------------||
||o-----------------|-------------------o||
||------------------|--------------------||


  A5                  G5
  PM------|           PM------|
  S S E E E H         S S E E E H
|-------------------|-------------------|
|-------------------|-------------------|
|-------------------|-------------------|
|-----------7-------|-----------5-------|
|-----------7-------|-----------5-------|
|-5-5-5-5-5-5-------|-3-3-3-3-3-3-------|
|
| E   E E E E E E E   E   E E E E E E E
|-------0-----0---0-|-------0---------0-|
|-------------------|-------------0-----|
|-7---9---9-7---9---|-7---9---9-7---0---|
|-------------------|-------------------|
|-------------------|-------------------|
|-------------------|-------------------|


                                         To Coda
  E5                D5                A5
  PM----|           PM----|           PM------|
  E E E E H         E E E E H         S S E E E H
|-----------------|-----------------|-------------------|
|-----------------|-----------------|-------------------|
|---------9-------|---------7-------|-------------------|
|---------9-------|---------7-------|-----------7-------|
|---------7-------|-5-5-5-5-5-------|-----------7-------|
|-0-0-0-0---------|-----------------|-5-5-5-5-5-5-------|
|
| E E E E E E E E   E E E E E E E E   E   E E E E E E E
|-----0-----0---0-|-----0---------0-|-------0-----0---0-|
|-----------------|-----------0-----|-------------------|
|-7-9---9-7---9---|-7-9---9-7---0---|-7---9---9-7---9---|
|-----------------|-----------------|-------------------|
|-----------------|-----------------|-------------------|
|-----------------|-----------------|-------------------|


  B5
  E E E E E E E E   E E E E E E E E
|-----------------|-------------------|
|-----------------|-------------------|
|-----------------|-------------------|
|-9-9-9-9-9-9-9-9-|-9-9-9-9-9-9-9-9---|
|-9-9-9-9-9-9-9-9-|-9-9-9-9-9-9-9-9---|
|-7-7-7-7-7-7-7-7-|-7-7-7-7-7-7-7-7---|
|
| E E E E E E E E   E E E E E E E E
|-----0---0-----0-|-----0---0-----0---|
|---4---4---4-----|---4---4---4-------|
|-4-----------4---|-4-----------4-----|
|-----------------|-------------------|
|-----------------|-------------------|
|-----------------|-------------------|


 Pre-Verse
  Em               D5                    C5                 B5
   S  S  E  +E   E  S  S  E     +E   E    S S  E     +E   E  S S  E     +E   E
|--7--7--7--(7)--7---------------------|---------------------------------------|
|--8--8--8--(8)--8---------------------|---------------------------------------|
|--9--9--9--(9)--9--7--7--7-----(7)--7-|--5-5--5-----(5)--5--4-4--4-----(4)--4-|
|--9--9--9--(9)--9--7--7--7-----(7)--7-|--5-5--5-----(5)--5--4-4--4-----(4)--4-|
|--7--7--7--(7)--7--5--5--5-----(5)--5-|--3-3--3-----(3)--3--2-2--2-----(2)--2-|
|--------------------------------------|---------------------------------------|
|
|  S  S  E  +E   E  S  S  S  S  +E   E    E    S  S  +E   E  E    S  S  +E   E
|------------------15------------------|---------12-(12)-12-15---15-12-(12)-15-|
|-------17-(17)-17----17----17-(17)-17-|------12-12-(12)-12-15---15-12-(12)-15-|
|-16-16------------------16------------|-14------------------------------------|
|--------------------------------------|---------------------------------------|
|--------------------------------------|---------------------------------------|
|--------------------------------------|---------------------------------------|


                                                                              D.C. al Coda
  E5                       B5                            C5                    D5
   S    S  E     +E   E     S     S  E    +E      E       S  S  E    +E      E  S S E +E  E
|------------------------------------------------------|---------------------------------------|
|------------------------------------------------------|---------------------------------------|
|---------------------------4-----4--4----(4)-----4----|--5--5--5----(5)-----5--7-7-7-(7)-7----|
|--2----2--2-----(2)--2-----4-----4--4----(4)-----4----|--5--5--5----(5)-----5--7-7-7-(7)-7----|
|--2----2--2-----(2)--2-----2-----2--2----(2)-----2----|--3--3--3----(3)-----3--5-5-5-(5)-5----|
|--0----0--0-----(0)--0--------------------------------|---------------------------------------|
|
|                                                                               >
|  E       E     +E   E     S     S  S  S  S   S  S  S    S  S  S  S  S   S  E  H
|------------------------------------------------------|---------------------------------------|
|-15b17---15b17r(15)-15b17-15b17-15-17-15--------------|---------------------------------------|
|-----------------------------------------16--14-12----|-14-12-14-12---------------------------|
|---------------------------------------------------16-|-------------14--13-12-14--------------|
|------------------------------------------------------|---------------------------------------|
|------------------------------------------------------|---------------------------------------|


 Out-Chorus
  &
  G5                E5                D5                A5
                    PM----|           PM----|           PM------|
  E E E E H         E E E E H         E E E E H         S S E E E H
|-----------------|-----------------|-----------------|-------------------|
|-----------------|-----------------|-----------------|-------------------|
|-----------------|---------9-------|---------7-------|-------------------|
|---------5-------|---------9-------|---------7-------|-----------7-------|
|---------5-------|---------7-------|-5-5-5-5-5-------|-----------7-------|
|-3-3-3-3-3-------|-0-0-0-0---------|-----------------|-5-5-5-5-5-5-------|
|
| E E E E E E E E   E E E E E E E E   E E E E E E E E   E   E E E E E E E
|-----0-----0---0-|-----0---------0-|-----0-----0---0-|-------0---------0-|
|-----------------|-----------0-----|-----------------|-------------0-----|
|-7-9---9-7---9---|-7-9---9-7---0---|-7-9---9-7---9---|-7---9---9-7---0---|
|-----------------|-----------------|-----------------|-------------------|
|-----------------|-----------------|-----------------|-------------------|
|-----------------|-----------------|-----------------|-------------------|


  B5                                             Em
  E E E E E E E E   E E E E E E E E   W          W          +W
|-----------------|-----------------|----------|----------|--------*|
|-----------------|-----------------|----------|-8--------|-(8)----*|
|-----------------|-----------------|----------|-9--------|-(9)----*|
|-9-9-9-9-9-9-9-9-|-9-9-9-9-9-9-9-9-|----------|-9--------|-(9)----*|
|-9-9-9-9-9-9-9-9-|-9-9-9-9-9-9-9-9-|----------|-7--------|-(7)----*|
|-7-7-7-7-7-7-7-7-|-7-7-7-7-7-7-7-7-|----------|----------|--------*|
|
| E E E E E E E E   E E E E E E E E   W          W           W
|-----0---0-----0-|-----0---0-----0-|----------|----------|--------*|
|---4---4---4-----|---4---4---4-----|----------|----------|--------*|
|-4-----------4---|-4-----------4---|----------|----------|--------*|
|-----------------|-----------------|----------|----------|--------*|
|-----------------|-----------------|----------|----------|--------*|
|-----------------|-----------------|----------|----------|--------*|


Duration Legend
---------------
W - whole; H - half; Q - quarter; E - 8th; S - 16th; T - 32nd; X - 64th; a - acciaccatura
+ - note tied to previous; . - note dotted; .. - note double dotted
Uncapitalized letters represent notes that are staccato (1/2 duration)
Irregular groupings are notated above the duration line
Duration letters will always appear directly above the note/fret number it represents the
duration for.  Duration letters with no fret number below them represent rests.  Multi-
bar rests are notated in the form Wxn, where n is the number of bars to rest for.  Low
melody durations appear below the staff

Tablature Legend
----------------
 h   - hammer-on
 p   - pull-off
 b   - bend
 pb  - pre-bend
 r   - bend release (if no number after the r, then release immediately)
 /\  - slide into or out of (from/to "nowhere")
 s   - legato slide
 S   - shift slide
  - natural harmonic
[n]  - artificial harmonic
n(n) - tapped harmonic
 ~   - vibrato
 tr  - trill
 T   - tap
 TP  - trem. picking
 PM  - palm muting
\n/  - tremolo bar dip; n = amount to dip
 \n  - tremolo bar down
 n/  - tremolo bar up
/n\  - tremolo bar inverted dip
 =   - hold bend; also acts as connecting device for hammers/pulls
 <>  - volume swell (louder/softer)
 x   - on rhythm slash represents muted slash
 o   - on rhythm slash represents single note slash

Misc Legend
-----------
 |  - bar
||  - double bar
||o - repeat start
o|| - repeat end
*|  - double bar (ending)
 :  - bar (freetime)
 $  - Segno
 &  - Coda
Tempo markers -  = BPM(8/16=s8/s16), where s8 = swing 8ths, s16 = swing 16ths


Добавлено: 17.03.2012
Другие материалы по этой песне:

Страница создана 17.03.2012
http://primanota.ru/bad-religion/grand-delusion-chords.htm
Привет, Гость.
Предлагаем пройти революционный курс по гитаре.
Подарок от PrimaNota.Ru, забирай!