PrimaNota.ru - самый крупный в мире бесплатный архив песенных текстов, аккордов, табулатур и нот


Bad Religion - Heroes And Martyrs - текст песни, таба, бас-таба, видео

Регистрация Запомнить меня
Войти через:  Facebook Google Twitter Vk Yandex Mail.ru

Bad Religion - Heroes And Martyrs - текст песни, таба, бас-таба, видео

Печатать
Просмотров: 131
Авторы музыки: Greg Graffin, Brett Gurewitz
Авторы текста: Greg Graffin, Brett Gurewitz
                               HEROES AND MARTYRS
                           As recorded by Bad Religion
                     (From the 2007 Album NEW MAPS OF HELL)

Words by Greg Graffin

Music by Bad Religion
Arranged by Bad Religion
Transcribed by Spidey255

Gtr I (E A D G B E) - 'Untitled'
Gtr II (E A D G B E) - 'Untitled'

   Intro
    Q=159
    A5B5  D5E5  A5B5    F5 E5  F5    E5D5
   4/4
    Gtr I
        PM    PM      PM     PM
    E E E E E E E E   E  E E E  E  E E E
||------------------|--------------------|
||o-----------------|--------------------|
||--------7-9-------|---10-9---10-10-9-7-|
||--7-9---7-9---7-9-|---10-9---10-10-9-7-|
||o-7-9-9-5-7-7-7-9-|-9--8-7-7--8--8-7-5-|
||--5-7-7-----7-5-7-|-7------7-----------|


  A5B5  D5E5  F5                        E5D5
      PM    PM
  E E E E E E  E  E    E  E  E  E  E  E E E
|-------------------|------------------------||
|-------------------|-----------------------o||
|-------7-9---10-10-|-10-10-10-10-10-10-9-7--||
|-7-9---7-9---10-10-|-10-10-10-10-10-10-9-7--||
|-7-9-9-5-7-7--8--8-|--8--8--8--8--8--8-7-5-o||
|-5-7-7-----7-------|------------------------||


   Verse
    $
    A5B5  D5E5  A5B5    F5 E5  F5    E5D5
        PM    PM      PM     PM
    E E E E E E E E   E  E E E  E  E E E
||------------------|--------------------|
||o-----------------|--------------------|
||--------7-9-------|---10-9---10-10-9-7-|
||--7-9---7-9---7-9-|---10-9---10-10-9-7-|
||o-7-9-9-5-7-7-7-9-|-9--8-7-7--8--8-7-5-|
||--5-7-7-----7-5-7-|-7------7-----------|


  A5B5  D5E5  F5                        E5D5
      PM    PM
  E E E E E E  E  E    E  E  E  E  E  E E E
|-------------------|-------------------------||
|-------------------|------------------------o||
|-------7-9---10-10-|-10-10-10-10-10-10-9-7---||
|-7-9---7-9---10-10-|-10-10-10-10-10-10-9-7---||
|-7-9-9-5-7-7--8--8-|--8--8--8--8--8--8-7-5--o||
|-5-7-7-----7-------|-------------------------||


 Chorus
  B5                A5                G5                D5      A5
  E E E E E E E E   E E E E E E E E   E E E E E E E E   E E E E E E E E
|-----------------|-----------------|-----------------|-----------------|
|-----------------|-----------------|-----------------|-----------------|
|-----------------|-----------------|-----------------|-7-7-7-7---------|
|-9-9-9-9-9-9-9-9-|-7-7-7-7-7-7-7-7-|-5-5-5-5-5-5-5-5-|-7-7-7-7-7-7-7-7-|
|-9-9-9-9-9-9-9-9-|-7-7-7-7-7-7-7-7-|-5-5-5-5-5-5-5-5-|-5-5-5-5-7-7-7-7-|
|-7-7-7-7-7-7-7-7-|-5-5-5-5-5-5-5-5-|-3-3-3-3-3-3-3-3-|---------5-5-5-5-|


                                                               To Coda
  B5                A5                G5                F#5
  E E E E E E E E   E E E E E E E E   E E E E E E E E   E E E E E E E E
|-----------------|-----------------|-----------------|-----------------|
|-----------------|-----------------|-----------------|-----------------|
|-----------------|-----------------|-----------------|-----------------|
|-9-9-9-9-9-9-9-9-|-7-7-7-7-7-7-7-7-|-5-5-5-5-5-5-5-5-|-4-4-4-4-4-4-4-4-|
|-9-9-9-9-9-9-9-9-|-7-7-7-7-7-7-7-7-|-5-5-5-5-5-5-5-5-|-4-4-4-4-4-4-4-4-|
|-7-7-7-7-7-7-7-7-|-5-5-5-5-5-5-5-5-|-3-3-3-3-3-3-3-3-|-2-2-2-2-2-2-2-2-|


 Pre-Verse
  A5B5  D5E5  A5B5    F5 E5  F5    E5D5
      PM    PM      PM     PM
  E E E E E E E E   E  E E E  E  E E E
|-----------------|--------------------|
|-----------------|--------------------|
|-------7-9-------|---10-9---10-10-9-7-|
|-7-9---7-9---7-9-|---10-9---10-10-9-7-|
|-7-9-9-5-7-7-7-9-|-9--8-7-7--8--8-7-5-|
|-5-7-7-----7-5-7-|-7------7-----------|
|
| Gtr II
| E E E E E E E E   E  E E E  E  E E E
|-7-7-7-7-7-7-7-7-|-7--7-7-7--7--7-7-7-|
|-7-7-7-7-7-7-7-7-|-7--7-7-7--7--7-7-7-|
|-----------------|--------------------|
|-----------------|--------------------|
|-----------------|--------------------|
|-----------------|--------------------|


                              D.S. al Coda
  A5B5  D5E5  F5                        E5D5
      PM    PM
  E E E E E E  E  E    E  E  E  E  E  E E E
|-------------------|-----------------------|
|-------------------|-----------------------|
|-------7-9---10-10-|-10-10-10-10-10-10-9-7-|
|-7-9---7-9---10-10-|-10-10-10-10-10-10-9-7-|
|-7-9-9-5-7-7--8--8-|--8--8--8--8--8--8-7-5-|
|-5-7-7-----7-------|-----------------------|
|
| E E E E E E  E  E    E  E  E  E  E  E E E
|-7-7-7-7-7-7--8--8-|--8--8--8--8--8--8-8-8-|
|-7-7-7-7-7-7--7--7-|--7--7--7--7--7--7-7-7-|
|-------------------|-----------------------|
|-------------------|-----------------------|
|-------------------|-----------------------|
|-------------------|-----------------------|


 Outro
  &
  A5B5  D5E5  A5B5    F5 E5  F5    E5D5
      PM    PM      PM     PM
  E E E E E E E E   E  E E E  E  E E E
|-----------------|--------------------|
|-----------------|--------------------|
|-------7-9-------|---10-9---10-10-9-7-|
|-7-9---7-9---7-9-|---10-9---10-10-9-7-|
|-7-9-9-5-7-7-7-9-|-9--8-7-7--8--8-7-5-|
|-5-7-7-----7-5-7-|-7------7-----------|
|
| E E E E E E E E   E  E E E  E  E E E
|-7-7-7-7-7-7-7-7-|-7--7-7-7--7--7-7-7-|
|-7-7-7-7-7-7-7-7-|-7--7-7-7--7--7-7-7-|
|-----------------|--------------------|
|-----------------|--------------------|
|-----------------|--------------------|
|-----------------|--------------------|


  A5B5  D5E5  F5                        E5D5
      PM    PM
  E E E E E E  E  E    E  E  E  E  E  E E E
|-------------------|-----------------------|
|-------------------|-----------------------|
|-------7-9---10-10-|-10-10-10-10-10-10-9-7-|
|-7-9---7-9---10-10-|-10-10-10-10-10-10-9-7-|
|-7-9-9-5-7-7--8--8-|--8--8--8--8--8--8-7-5-|
|-5-7-7-----7-------|-----------------------|
|
| E E E E E E  E  E    E  E  E  E  E  E E E
|-7-7-7-7-7-7--8--8-|--8--8--8--8--8--8-8-8-|
|-7-7-7-7-7-7--7--7-|--7--7--7--7--7--7-7-7-|
|-------------------|-----------------------|
|-------------------|-----------------------|
|-------------------|-----------------------|
|-------------------|-----------------------|


  A5B5  D5E5  A5B5    F5 E5  F5    E5D5
      PM    PM      PM     PM
  E E E E E E E E   E  E E E  E  E E E
|-----------------|--------------------|
|-----------------|--------------------|
|-------7-9-------|---10-9---10-10-9-7-|
|-7-9---7-9---7-9-|---10-9---10-10-9-7-|
|-7-9-9-5-7-7-7-9-|-9--8-7-7--8--8-7-5-|
|-5-7-7-----7-5-7-|-7------7-----------|
|
| E E E E E E E E   E  E E E  E  E E E
|-7-7-7-7-7-7-7-7-|-7--7-7-7--7--7-7-7-|
|-7-7-7-7-7-7-7-7-|-7--7-7-7--7--7-7-7-|
|-----------------|--------------------|
|-----------------|--------------------|
|-----------------|--------------------|
|-----------------|--------------------|


  A5B5  D5E5  F5                        E5D5  B5
      PM    PM
  E E E E E E  E  E    E  E  E  E  E  E E E   Q   Q  H
|-------------------|-----------------------|-------------*|
|-------------------|-----------------------|-------------*|
|-------7-9---10-10-|-10-10-10-10-10-10-9-7-|-------------*|
|-7-9---7-9---10-10-|-10-10-10-10-10-10-9-7-|-9\----------*|
|-7-9-9-5-7-7--8--8-|--8--8--8--8--8--8-7-5-|-9\----------*|
|-5-7-7-----7-------|-----------------------|-7\----------*|
|
| E E E E E E  E  E    E  E  E  E  E  E E E   Q   Q  H
|-7-7-7-7-7-7--8--8-|--8--8--8--8--8--8-8-8-|-------------*|
|-7-7-7-7-7-7--7--7-|--7--7--7--7--7--7-7-7-|-------------*|
|-------------------|-----------------------|-------------*|
|-------------------|-----------------------|-------------*|
|-------------------|-----------------------|-------------*|
|-------------------|-----------------------|-7\----------*|


Duration Legend
---------------
W - whole; H - half; Q - quarter; E - 8th; S - 16th; T - 32nd; X - 64th; a - acciaccatura
+ - note tied to previous; . - note dotted; .. - note double dotted
Uncapitalized letters represent notes that are staccato (1/2 duration)
Irregular groupings are notated above the duration line
Duration letters will always appear directly above the note/fret number it represents the
duration for.  Duration letters with no fret number below them represent rests.  Multi-
bar rests are notated in the form Wxn, where n is the number of bars to rest for.  Low
melody durations appear below the staff

Tablature Legend
----------------
 h   - hammer-on
 p   - pull-off
 b   - bend
 pb  - pre-bend
 r   - bend release (if no number after the r, then release immediately)
 /\  - slide into or out of (from/to "nowhere")
 s   - legato slide
 S   - shift slide
  - natural harmonic
[n]  - artificial harmonic
n(n) - tapped harmonic
 ~   - vibrato
 tr  - trill
 T   - tap
 TP  - trem. picking
 PM  - palm muting
\n/  - tremolo bar dip; n = amount to dip
 \n  - tremolo bar down
 n/  - tremolo bar up
/n\  - tremolo bar inverted dip
 =   - hold bend; also acts as connecting device for hammers/pulls
 <>  - volume swell (louder/softer)
 x   - on rhythm slash represents muted slash
 o   - on rhythm slash represents single note slash

Misc Legend
-----------
 |  - bar
||  - double bar
||o - repeat start
o|| - repeat end
*|  - double bar (ending)
 :  - bar (freetime)
 $  - Segno
 &  - Coda
Tempo markers -  = BPM(8/16=s8/s16), where s8 = swing 8ths, s16 = swing 16ths


Добавлено: 15.06.2012
Другие материалы по этой песне:

Страница создана 13.05.2012
http://primanota.ru/bad-religion/heroes-and-martyrs-chords.htm
Привет, Гость.
Предлагаем пройти революционный курс по гитаре.
Подарок от PrimaNota.Ru, забирай!