PrimaNota.ru - самый крупный в мире бесплатный архив песенных текстов, аккордов, табулатур и нот


Bad Religion - Fall To The Ground - таба, видео

Регистрация Запомнить меня
Войти через:  Facebook Google Twitter Vk Yandex Mail.ru

Bad Religion - Fall To The Ground - таба, видео

Печатать
Просмотров: 117
Fall to the ground-By Bodyjar

E|-----3-3-----------------3-3-----------------------------------------------|
B|-----4-4-----------------4-4-----------------------------------------------|
G|-----5-5-----------------5-5-----------------------------------------------|
D|---5-5-5-----(X3)------5-5-5----------8-8-8-8------------------------------|
A|---3-3-3---------------3-3-3----------8-8-8-8------------------------------|
E|---------4-4-3-3-------------4-4-4-3-3--6-6-6-6----------------------------|

Intro:
E|-------3-6-8-6------------------------------------------------------------|
B|-----4--------------------------------------------------------------------|
G|---5----------------------------------------------------------------------|
D|--------------------------------------------------------------------------|
A|--------------------------------------------------------------------------|
E|--------------------------------------------------------------------------|

Verse:
E|--------------------------------------------------------------------------|
B|--------------------------------------------------------------------------|
G|--------------------------------------------------------------------------|
D|---XX5---------10-10-------XX5--------------------------------------------|
A|---XX3-XX7-XX5--8—8--------XX3-XX7-XX5-6-6-6-6----------------------------|
E|-------XX5-XX3-----------------XX5-XX3-4-4-4-4----------------------------|

Verse:
E|--------------------------------------------------------------------------|
B|--------------------------------------------------------------------------|
G|--------------------------------------------------------------------------|
D|---XX5---------10-10-------XX5--------------------------------------------|
A|---XX3-XX7-XX5--8—8--------XX3-XX7-8-8------------------------------------|
E|-------XX5-XX3-----------------XX5-6-6------------------------------------|

Chorus:
E|--------------------------------------------------------------------------|
B|--------------------------------------------------------------------------|
G|--------------------------------------------------------------------------|
D|---5-5-5-5--------------------5-5-5-5-------------------------------------|
A|---3-3-3-3-7-7-5-5--3-3XX3-3--3-3-3-3-5-5-5-5-----------------------------|
E|-----------5-5-3-3--1-1XX1-1----------3-3-3-3-----------------------------|

Chorus:
E|--------------------------------------------------------------------------|
B|-----5----5----6-6-5------------------------------------------------------|
G|---5----5----5-5-5-5------------------------------------------------------|
D|---------------------6----------------------------------------------------|
A|--------------------------------------------------------------------------|
E|--------------------------------------------------------------------------|

Solo:
E|----------------------------------------------------------------7---------|
B|---5---------3-5-6--5---------6-5-3—6s5-3-------8-6-5---------------------|
G|-----7s5--------------7s5------------------5-2-5---------5p7p7----5-7-5---|
D|-------------------------------------------------------5------------------|
A|---------3-3--------------3-3---------------------------------------------|
E|--------------------------------------------------------------------------|
Добавлено: 10.07.2012
Другие материалы по этой песне:
  • Аккорды и текст

Страница создана 10.07.2012
http://primanota.ru/bad-religion/fall-to-the-ground-chords.htm
Привет, Гость.
Предлагаем пройти революционный курс по гитаре.
Подарок от PrimaNota.Ru, забирай!