PrimaNota.ru - самый крупный в мире бесплатный архив песенных текстов, аккордов, табулатур и нот


Bad Religion - Get Off - текст песни, таба, видео

Регистрация Запомнить меня
Войти через:  Facebook Google Twitter Vk Yandex Mail.ru

Bad Religion - Get Off - текст песни, таба, видео

Печатать
Просмотров: 134
Авторы музыки: Greg Graffin
Авторы текста: Greg Graffin
Get Off by Bad Religion

Tabbed by Alberto Luévano


Intro

e|-------------------------------------------------------------------|
B|-------------------------------------------------------------(Let--|
G|--6-6-6-6-6-6-6-6---------4-4-4-4-6-6-6-6-6-6-6-6---------6--the---|
D|--6-6-6-6-6-6-6-6-4-4-4-4-4-4-4-4-6-6-6-6-6-6-6-6-6-6-6-6-6--last--|
A|--4-4-4-4-4-4-4-4-4-4-4-4-2-2-2-2-4-4-4-4-4-4-4-4-6-6-6-6-4--note--| 
E|------------------2-2-2-2-------------------------4-4-4-4----ring)-|


Verse

e|--------------------------|-----------------------------------|
B|--------------------------|-----------------------------------|
G|--6-6-6--4-6-4------------|------------------4-4-4-4-6-6-6-6--|
D|--6-6-6--4-6-4-4-6--(x3)--|--6-6-6-6-4-4-4-4-4-4-4-4-6-6-6-6--|
A|--4-4-4--2-4-2-4-6--------|--6-6-6-6-4-4-4-4-2-2-2-2-4-4-4-4--|
E|---------------2-4--------|--4-4-4-4-2-2-2-2------------------|


Pre-Chorus

e|-------------------------------------------------------------------|
B|-------------------------------------------------------------------|
G|--6-6-6-6-6-6-6-6---------4-4-4-4-6-6-6-6-6-6-6-6---------6-6-6-6--|
D|--6-6-6-6-6-6-6-6-4-4-4-4-4-4-4-4-6-6-6-6-6-6-6-6-6-6-6-6-6-6-6-6--|
A|--4-4-4-4-4-4-4-4-4-4-4-4-2-2-2-2-4-4-4-4-4-4-4-4-6-6-6-6-4-4-4-4--| 
E|------------------2-2-2-2-------------------------4-4-4-4----------|

e|-------------------------------------------|
B|-------------------------------------------|
G|--6-6-6-6-6-6-6-6---------6-6-----6-6-6-6--|
D|--6-6-6-6-6-6-6-6-4-4-4-4-6-6-6-6-6-6-6-6--|
A|--4-4-4-4-4-4-4-4-4-4-4-4-4-4-6-6-4-4-4-4--|
E|------------------2-2-2-2-----4-4----------|


Chorus

e|-------------------------------------------------------------------|
B|-------------------------------------------------------------------|
G|--6-6-6-6-6-6-6-6---------4-4-4-4-6-6-6-6---------6-6-6-6-6-6-6-6--|
D|--6-6-6-6-6-6-6-6-4-4-4-4-4-4-4-4-6-6-6-6-6-6-6-6-6-6-6-6-6-6-6-6--|
A|--4-4-4-4-4-4-4-4-4-4-4-4-2-2-2-2-4-4-4-4-6-6-6-6-4-4-4-4-4-4-4-4--| 
E|------------------2-2-2-2-----------------4-4-4-4------------------|


Outro

e|-----------------------------------------|--------------------------|
B|-----------------------------------------|--------------------------|
G|------------------4-4-4-4-6-6-6-6--------|--6-6-6--4-6-4------------|
D|--6-6-6-6-4-4-4-4-4-4-4-4-6-6-6-6--(x3)--|--6-6-6--4-6-4-4-6--(x2)--|
A|--6-6-6-6-4-4-4-4-2-2-2-2-4-4-4-4--------|--4-4-4--2-4-2-4-6--------|
E|--4-4-4-4-2-2-2-2------------------------|---------------2-4--------|


Alright, that's everything, it's a pretty simple song. I hope this helped you out.
Добавлено: 27.03.2012
Другие материалы по этой песне:
  • Аккорды и текст

Страница создана 27.03.2012
http://primanota.ru/bad-religion/get-off-chords.htm
Привет, Гость.
Предлагаем пройти революционный курс по гитаре.
Подарок от PrimaNota.Ru, забирай!