PrimaNota.ru - самый крупный в мире бесплатный архив песенных текстов, аккордов, табулатур и нот


Babyshambles - Sheepskin Tearaway - текст песни, таба, видео

Регистрация Запомнить меня
Войти через:  Facebook Google Twitter Vk Yandex Mail.ru

Babyshambles - Sheepskin Tearaway - текст песни, таба, видео

Печатать
Просмотров: 238
Уроки эстрадного вокала в Санкт-Петербурге
Авторы: Peter Doherty, Dot Allison

Sheepskin Tearaway

Tuning:...yeur gonna NEED a cappo for this....so  put yeur little cappo on the second
and play as if the cappo wasnt there... so don't move your fingers 2 frets over because
tab tells u to play that way...so the 5th fret is still the 5th fret... and so on...so 
play normal

Intro:

e|-------0--0----------0--0---------|
B|-------7--7----------7--7---------|
G|-------6--6----------6--6---------|         X2
D|----7-------------7---------------|
A|-6-------------5------------------|
E|----------------------------------|

e|----------------------------------|
B|----------------------------------|
G|------6-----------6---------------|          X2
D|------7-----------7---------------|
A|-0----------------0---------------|
E|---------------0------------------|

e|-----x---x---x-------------x----x------x----------------------5---5---7----5--------4---------|
B|-----9---9---9-------------9----9------9----------------------5---5---5----5--------6---------|
G|-----7---7---7-------------7----7------7----------------------6---6---6----6--------4---------|
D|-----9---9---9-------------9----9------9--------7-------------7---7---5----5--------6---------|
A|-----7---7---7-------------7----7------7--------7-------------7---7---7----7--------4---------|
E|-----7---7---7-------------7----7------7--------5-------------5---5---5----5--------4---------|

e|-----4---4----4--------4—---4---4-------------5--------5-----5----------5-----5----5-----|
B|-----6---6----6--------6----6---6-------------7--------7-----7----------7-----7----7-----|
G|-----4---4----4--------4----4---4-------------6--------6-----6----------6-----6----6-----|
D|-----6---6----6--------6----6---6-------------7--------7-----7----------7-----7----7-----|
A|-----4---4----4--------4----4---4-------------5--------5-----5----------5-----5----5-----|
E|-----4---4----4--------4----4---4-------------5--------5-----5----------5-----5----5-----|

e|-----------------------------------------------------------|
B|-------------7----7-------------------7----7---------------|
G|-------------6----6-------------------6----6---------------|
D|-------7-----7----7------------7------7----7-----------7---|
A|-------6-----6----6------------5------5----5-----------7---|
E|-------------------------------------------------------5---|


e|----5---5---7----5--------4-----------|
B|----5---5---5----5--------6-----------|
G|----6---6---6----6--------4-----------|
D|----7---7---5----5--------6-----------|
A|----7---7---7----7--------4-----------|
E|----5---5---5----5--------4-----------|


e|-----4---4----4--------4—---4---4--------------5--------5-----5----------5-----5----5----|
B|-----6---6----6--------6----6---6--------------7--------7-----7----------7-----7----7----|
G|-----4---4----4--------4----4---4--------------6--------6-----6----------6-----6----6----|
D|-----6---6----6--------6----6---6--------------7--------7-----7----------7-----7----7----|
A|-----4---4----4--------4----4---4--------------5--------5-----5----------5-----5----5----|
E|-----4---4----4--------4----4---4--------------5--------5-----5----------5-----5----5----|

e|---------------------------------------------------|
B|--------------7----7--------------------7----7-----|
G|--------------6----6--------------------6----6-----|
D|------7-------7----7--------------7-----7----7-----|
A|------6-------6----6--------------5-----5----5-----|
E|---------------------------------------------------|

Just listen to the song so you can catch the perfect strumming....

e|----------------5----------------------------------------------------------|
B|------------------5----------------------------------------------------5---|
G|---------------------7------6-----7------6h7---6h7----6h7------------------|
D|------7--------------------------------------------------------------------|
A|------7--------------------------------------------------------------------|
E|------5--------------------------------------------------------------------|
X2

yea I know there's a few errors but nothing big....

Well.... good luck,                  *wink*

| /  slide up
| \  slide down
| h  hammer-on
| p  pull-off
| ~  vibrato
| +  harmonic
| x  Mute note
Добавлено: 11.04.2012
Другие материалы по этой песне:
  • Аккорды и текст

Страница создана 03.04.2012
http://primanota.ru/babyshambles/sheepskin-tearaway-chords.htm
Привет, Гость.
Предлагаем пройти революционный курс по гитаре.
Подарок от PrimaNota.Ru, забирай!